Sound will begin in 5 seconds

Undying - Echoes

01234567891011121314151617181920212223
E
B
G
D
A
E
B
0 1 2 3 4 5 6 7 8 9 10 11 12 13 14 15 16 17 18 19 20 21 22 23
(/) Slide Up  (\) Slide Down  (h) Hammer On  (p) Pull Off  (b) Bend (r) Release (v) Vibrato

Stave 1:

E|------------------------------------------------------------------------------------------
B|------------------------------------------------------------------------------------------
G|------------------------------------------------------------------------------------------
D|-----------7--5--------------5-----------------------7--5-----------------7--5--5/7\5-----
A|--8--7--5--------8--7--5--8-----8--7--5--3--8--7--5--------8--7--5--5--5---------------8--
D|------------------------------------------------------------------------------------------

Stave 2:

E|------------------------------------------------------------------------------------------
B|------------------------------------------------------------------------------------------
G|--------------------------------------------------------------------------7--5--5/7\5-----
D|-----------7--5--------------5-----------------------7--5------------------------------7--
A|--8--7--5--------8--7--5--8-----8--7--5--3--8--7--5--------8--7--5--5--5------------------
D|------------------------------------------------------------------------------------------

Stave 3:

E|--------------------------------------------------------------------------------------------
B|--------------------------------------------------------------------------------------------
G|--------------------------------------------------------------------------10--9--9/10\9--7--
D|-----------7--5--------------5-----------------------7--5-----------------------------------
A|--8--7--5--------8--7--5--8-----8--7--5--3--8--7--5--------8--7--5--5--5--------------------
D|--------------------------------------------------------------------------------------------

Stave 4:

E|--------------------------------------------------------------------------------------
B|--------------------------------------------------------------------------------------
G|--------------------------------------------------------------------------------------
D|-----------7--5--------------5-----------------------7--5-----------------7--5--------
A|--8--7--5--------8--7--5--8-----8--7--5--3--8--7--5--------8--7--5--5--5--------8--7--
D|--------------------------------------------------------------------------------------

Stave 5:

E|--------------------------------------------------------------------
B|--------------------------------------------------------------------
G|--------------------------------------------------------------------
D|-----8--7--8--10--8--10--8--7--8--------------5--7-----10--7--5--7--
A|----------------------------------5--8--7--8--------7---------------
D|--0-----------------------------------------------------------------

http://www.guitartabcreator.com
Guitar Tab Creator is intended to store guitar tab created through the tool. It currently does not support in-line text editing. Any text you place in here will be lost. If you need to comment on your tab, please use the "Tab Notes" section located below.