My song #1

Chords

01234567891011121314151617181920212223
E
B
G
D
A
E
B
0 1 2 3 4 5 6 7 8 9 10 11 12 13 14 15 16 17 18 19 20 21 22 23
(/) Slide Up  (\) Slide Down  (h) Hammer On  (p) Pull Off  (b) Bend (r) Release (v) Vibrato

Stave 1:

E|------------------------------------------------------------------------------------------------------
B|---------------8h9p8--11--9---------------8h9p8h9p8h9p8h9p8h9p8h9p8---------------8h9p8--11--9--------
G|---------8--9-----------------------8--9------------------------------------8--9----------------------
D|------9--------------------------9---------------------------------------9----------------------------
A|--11-------------------------11--------------------------------------11-------------------------------
E|------------------------------------------------------------------------------------------------------

Stave 2:

E|------------------------
B|------------------------
G|------------------------
D|------9--8--5--8-----6--
A|--11--------------------
E|------------------------

							http://www.guitartabcreator.com
Instruments
{"strings":[[[".",".",".",".",".",".",".",".",".",".",".",".",".",".",".",".",".",".",".",".",".",".",".",".",".",".",".",".",".",".",".",".",".",".",".",".",".",".",".",".",".",".",".",".",".",".",".",".",".",".",".",".","."],[".",".",".",".",8,"h",9,"p",8,11,9,".",".",".",".",8,"h",9,"p",8,"h",9,"p",8,"h",9,"p",8,"h",9,"p",8,"h",9,"p",8,"h",9,"p",8,".",".",".",".",8,"h",9,"p",8,11,9,".","."],[".",".",8,9,".",".",".",".",".",".",".",".",".",8,9,".",".",".",".",".",".",".",".",".",".",".",".",".",".",".",".",".",".",".",".",".",".",".",".",".",".",".",8,9,".",".",".",".",".",".",".",".","."],[".",9,".",".",".",".",".",".",".",".",".",".",9,".",".",".",".",".",".",".",".",".",".",".",".",".",".",".",".",".",".",".",".",".",".",".",".",".",".",".",".",9,".",".",".",".",".",".",".",".",".",".","."],[11,".",".",".",".",".",".",".",".",".",".",11,".",".",".",".",".",".",".",".",".",".",".",".",".",".",".",".",".",".",".",".",".",".",".",".",".",".",".",".",11,".",".",".",".",".",".",".",".",".",".",".","."],[".",".",".",".",".",".",".",".",".",".",".",".",".",".",".",".",".",".",".",".",".",".",".",".",".",".",".",".",".",".",".",".",".",".",".",".",".",".",".",".",".",".",".",".",".",".",".",".",".",".",".",".","."]],[[".",".",".",".",".",".","."],[".",".",".",".",".",".","."],[".",".",".",".",".",".","."],[".",9,8,5,8,".",6],[11,".",".",".",".",".","."],[".",".",".",".",".",".","."]]],"numberofstrings":6,"notes":["E","B","G","D","A","E","B"],"capo":0,"stringnotes":["E4","B3","G3","D3","A2","E2"],"comments":["Stave 1:","Stave 2:"],"timing":[["W","W","W","W","W",null,"W",null,"W","W","W","W","W","W","W","W",null,"W",null,"W",null,"W",null,"W",null,"W",null,"W",null,"W",null,"W",null,"W",null,"W",null,"W",null,"W","W","W","W","W","W",null,"W",null,"W","W","W"],["W","W","W","W","W","W","W","W"]],"timingvisible":false,"tabcounter":53,"stave":0,"totalstaves":2,"instrument":"6guitar","selectedtuning":"6_standard","version":"13"}

Member for

1 week 4 days
Submitted by DEGRIFT1243 on Sat, 2020-11-21 03:30