aasuul

Chords

01234567891011121314151617181920212223
E
B
G
D
A
E
B
0 1 2 3 4 5 6 7 8 9 10 11 12 13 14 15 16 17 18 19 20 21 22 23
(/) Slide Up  (\) Slide Down  (h) Hammer On  (p) Pull Off  (b) Bend (r) Release (v) Vibrato

Stave 1:

E|--2----5---------------------0----------5----------7-------------------------------5-------------------4----------
B|---------------------2h4-------------4-----8\9-----------------------5----------------------7--7------------------
G|-------------4--4h2-------2-----2h0-------------8-----7----------11-------------7--------4--------4h7-------------
D|--2-------6----------------------------------------------7h9--7---------6--6p4--------6-------------------4-------
A|--3h0--------------------------------------------------------------------------------------------------------5h7--
E|------------------------------------------------------------------------------------------------------------------

Stave 2:

E|----------5-----------6-------------------------7--------------5-----------------------------------
B|---------------------------------------------------------------------------5--------5--2--------2--
G|--------------------------------------8---------------4-----4-----4-----4-----4-----4-----0-----0--
D|-------7-----6--------------7--6h7p4-----4h6h7-----7-----7-----------6--6--------6--6--------2--1--
A|--7p5-----------5--7-----5-------------------------------------------------------------------------
E|---------------------------------------------------------------------------------------------------

Stave 3:

E|--7-----2-----------------0-----0---------
B|------------------------------------------
G|-----------------------4------------------
D|-----8--2h4-----2h4h2--------0-----12-----
A|-----0-------2---------------0-----12-----
E|-----8------------------------------------

Stave 4:

E|--7-----2-----------------0-----5-----------
B|--------------------------------------------
G|-----------------------4--------------------
D|-----8--2h4-----2h4h2--------0-----6--------
A|-----0-------2---------------0--------0-----
E|-----8-----------------------------------7--

							http://www.guitartabcreator.com
Tab Notes
Stave 1 Stave 2 x2 Stave 3 x 3 Stave 4 x 1 ja alkuun.
Instruments
{"strings":[[[2,".",".",5,".",".",".",".",".",".",".",".",".",0,".",".",".",".",5,".",".",".",".",7,".",".",".",".",".",".",".",".",".",".",".",".",5,".",".",".",".",".",".",".",4,".",".",".","."],[".",".",".",".",".",".",".",".",".",2,"h",4,".",".",".",".",".",4,".",8,"\\",9,".",".",".",".",".",".",".",".",5,".",".",".",".",".",".",".",".",7,7,".",".",".",".",".",".",".","."],[".",".",".",".",".",4,4,"h",2,".",".",".",2,".",2,"h",0,".",".",".",".",".",8,".",7,".",".",".",".",11,".",".",".",".",".",7,".",".",4,".",".",4,"h",7,".",".",".",".","."],[2,".",".",".",6,".",".",".",".",".",".",".",".",".",".",".",".",".",".",".",".",".",".",".",".",7,"h",9,7,".",".",6,6,"p",4,".",".",6,".",".",".",".",".",".",".",4,".",".","."],[3,"h",0,".",".",".",".",".",".",".",".",".",".",".",".",".",".",".",".",".",".",".",".",".",".",".",".",".",".",".",".",".",".",".",".",".",".",".",".",".",".",".",".",".",".",".",5,"h",7],[".",".",".",".",".",".",".",".",".",".",".",".",".",".",".",".",".",".",".",".",".",".",".",".",".",".",".",".",".",".",".",".",".",".",".",".",".",".",".",".",".",".",".",".",".",".",".",".","."]],[[".",".",".",".",5,".",".",".",6,".",".",".",".",".",".",".",".",".",".",".",".",".",7,".",".",".",".",5,".",".",".",".",".",".",".",".",".",".","."],[".",".",".",".",".",".",".",".",".",".",".",".",".",".",".",".",".",".",".",".",".",".",".",".",".",".",".",".",".",".",".",5,".",".",5,2,".",".",2],[".",".",".",".",".",".",".",".",".",".",".",".",".",".",".",".",8,".",".",".",".",".",".",".",4,".",4,".",4,".",4,".",4,".",4,".",0,".",0],[".",".",".",7,".",6,".",".",".",".",7,6,"h",7,"p",4,".",4,"h",6,"h",7,".",7,".",7,".",".",".",6,6,".",".",6,6,".",".",2,1],[7,"p",5,".",".",".",5,7,".",5,".",".",".",".",".",".",".",".",".",".",".",".",".",".",".",".",".",".",".",".",".",".",".",".",".",".",".",".","."],[".",".",".",".",".",".",".",".",".",".",".",".",".",".",".",".",".",".",".",".",".",".",".",".",".",".",".",".",".",".",".",".",".",".",".",".",".",".","."]],[[7,".",2,".",".",".",".",".",".",".",".",".",0,".",0,".","_"],[".",".",".",".",".",".",".",".",".",".",".",".",".",".",".",".","_"],[".",".",".",".",".",".",".",".",".",".",".",4,".",".",".",".","_"],[".",8,2,"h",4,".",2,"h",4,"h",2,".",".",0,".",12,"_"],[".",0,".",".",".",2,".",".",".",".",".",".",".",0,".",12,"_"],[".",8,".",".",".",".",".",".",".",".",".",".",".",".",".",".","_"]],[[7,".",2,".",".",".",".",".",".",".",".",".",0,".",5,".",".","."],[".",".",".",".",".",".",".",".",".",".",".",".",".",".",".",".",".","."],[".",".",".",".",".",".",".",".",".",".",".",4,".",".",".",".",".","."],[".",8,2,"h",4,".",2,"h",4,"h",2,".",".",0,".",6,".","."],[".",0,".",".",".",2,".",".",".",".",".",".",".",0,".",".",0,"."],[".",8,".",".",".",".",".",".",".",".",".",".",".",".",".",".",".",7]]],"numberofstrings":6,"notes":["E","B","G","D","A","E","B"],"capo":0,"stringnotes":["E4","B3","G3","D3","A2","E2"],"comments":["Stave 1:","Stave 2:","Stave 3:","Stave 4:"],"timing":[["W","W","W","W","W","W","W",null,"W","W",null,"W","W","W","W",null,"W","W","W","W",null,"W","W","W","W","W",null,"W","W","W","W","W","W",null,"W","W","W","W","W","W","W","W","W","W","W","W","W",null,"W","W","W"],["W",null,"W","W","W","W","W","W","W","W","W","W",null,"W",null,"W","W","W",null,"W",null,"W","W","W","W","W","W","W","W","W","W","W","W","W","W","W","W","W","W"],["W","W","W","W","W","W","W",null,"W",null,"W","W","W","W","W","W"],["W","W","W",null,"W","W","W",null,"W",null,"W","W","W","W","W","W","W","W"]],"timingvisible":false,"tabcounter":18,"stave":3,"totalstaves":4,"instrument":"6guitar","selectedtuning":"6_standard","version":"13"}

Member for

1 month 3 weeks
Submitted by deekupappa on Tue, 2020-10-06 02:48