Sound will begin in 5 seconds

Sweet Child

01234567891011121314151617181920212223
E
B
G
D
A
E
B
0 1 2 3 4 5 6 7 8 9 10 11 12 13 14 15 16 17 18 19 20 21 22 23
Song Science #1: How Pros Use 6 Chords to Write Hit Songs
(/) Slide Up  (\) Slide Down  (h) Hammer On  (p) Pull Off  (b) Bend (r) Release (v) Vibrato

Stave 1:

E|------------------------7--8--7--11--7--8--11--12/14--11--12--
B|--7--8--7-----7--10b12----------------------------------------
G|-----------9--------------------------------------------------
D|--------------------------------------------------------------
A|--------------------------------------------------------------
E|--------------------------------------------------------------

Stave 2:

E|--14/15--12--14--15--14--12------14------12--14--12------12------------
B|-----------------------------15------15--------------15------15b17r15--
G|-----------------------------------------------------------------------
D|-----------------------------------------------------------------------
A|-----------------------------------------------------------------------
E|-----------------------------------------------------------------------

Stave 3:

E|----------------12----------------------------12----------------------------14------
B|--15b17--15b17------15--12------15b17--15b17------15--12------17b19--17b19------17--
G|----------------------------14----------------------------14------------------------
D|------------------------------------------------------------------------------------
A|------------------------------------------------------------------------------------
E|------------------------------------------------------------------------------------

Stave 4:

E|---------15-------------------------------12----------|---------------------------------|--
B|--17b19------17b19r17--15--15--17--15b17------15--12--|---------------------------------|--
G|------------------------------------------------------|--14b16--12--14--12--14--12--14--|--
D|------------------------------------------------------|---------------------------------|--
A|------------------------------------------------------|---------------------------------|--
E|------------------------------------------------------|---------------------------------|--

Stave 5:

E|------------------------------15------|------15------15-----------------------------------|--
B|----------------------15--------------|---------------------------------------------------|--
G|--14--12--14--12--14------14------14--|--14------14------14--12------14--12---------------|--
D|--------------------------------------|--------------------------14----------14--------x--|--
A|--------------------------------------|---------------------------------------------------|--
E|--------------------------------------|---------------------------------------------------|--

Stave 6:

E|---------------------------------------------|----------------------------------
B|---------------------------------------------|----------------------------------
G|--12v------------------------12--14--12------|--12v---------------------12--14--
D|-------14--12--14v-----x--x--------------14--|-------14--12--14v--x--x----------
A|---------------------------------------------|----------------------------------
E|---------------------------------------------|----------------------------------

Stave 7:

E|------------------------------------------------------------------12--12----------15--15--12--15--14--12--15--12------|--
B|----------------------------------12--12----------15--15--12--------------15--12----------------------------------15--|--
G|--12--12----------14--14--12--------------14--12--------------14------------------------------------------------------|--
D|----------14--12--------------14--------------------------------------------------------------------------------------|--
A|----------------------------------------------------------------------------------------------------------------------|--
E|----------------------------------------------------------------------------------------------------------------------|--

Stave 8:

E|---------12----------------12---------|--------
B|--15b17------15p12-------------15p12--|--------
G|--------------------14b16-------------|--------
D|--------------------------------------|--------
A|--------------------------------------|--------
E|--------------------------------------|--------

Stave 9:

E|--15-----15--12--15--12------12------12------------------------------------------------------|--
B|-------------------------15------15------15--12--------------15------------------------------|--
G|-------------------------------------------------14--12--14------14--12------14--12------12--|--
D|-------------------------------------------------------------------------14----------14------|--
A|---------------------------------------------------------------------------------------------|--
E|---------------------------------------------------------------------------------------------|--

Stave 10:

E|--|--|--|--
B|--|--|--|--
G|--|--|--|--
D|--|--|--|--
A|--|--|--|--
E|--|--|--|--

Stave 11:

E|--
B|--
G|--
D|--
A|--
E|--

Stave 12:

E|--
B|--
G|--
D|--
A|--
E|--

http://www.guitartabcreator.com
Guitar Tab Creator is intended to store guitar tab created through the tool. It currently does not support in-line text editing. Any text you place in here will be lost. If you need to comment on your tab, please use the "Tab Notes" section located below.