Sound will begin in 5 seconds

Un Petite Fleur

Chords
01234567891011121314151617181920212223
E
B
G
D
A
E
B
0 1 2 3 4 5 6 7 8 9 10 11 12 13 14 15 16 17 18 19 20 21 22 23
Song Science #1: How Pros Use 6 Chords to Write Hit Songs
(/) Slide Up  (\) Slide Down  (h) Hammer On  (p) Pull Off  (b) Bend (r) Release (v) Vibrato

Stave 1:

E|------------------7--------|-----------------5--------|--------------------|--0--
B|--10--9--------9-----------|--8--7--------7-----------|--5--4--2-----------|--0--
G|------------8--------------|-----------6--------------|--2--------4--2--1--|--1--
D|---------9-----------------|--------7-----------------|--2-----------------|--4--
A|------7--------------------|-----5--------------------|--2-----------------|--2--
E|---------------------7--0--|--------------------5--0--|-----------------0--|--0--

Stave 2:

E|--------------------0--------------------------0-----------------------0--------------------0\
B|-----------0--------------------------0-----------------------------0--------------------0----
G|--------4-----4--------4-----------6-----6--------6--------------2--------------------4-------
D|-----4-----------4--------------6-----------6-----------------2--------------------4----------
A|-----------------------------------------------------------0--------------------0-------------
E|--4--------------------------5--------------------------2--------------------4----------------

Stave 3:

E|--0--|--0--4--5--------5--4--2-------------------2--5--------5--4--2-----------------
B|--0--|-----------2--------------5--4--------4\5--------2--------------5--4--------4--
G|--1--|--------------2-----------------2-------------------2-----------------2--------
D|--4--|-----------------------------------2-------------------------------------2-----
A|--2--|--------2--------------------2----------------2--------------------2-----------
E|--0--|-------------------------------------------------------------------------------

Stave 4:

E|--------------0--2--0-----
B|-----------4-----------5--
G|--------2-----------------
D|-----4-----------------6--
A|--2-----------------------
E|-----------------------0--

http://www.guitartabcreator.com
Guitar Tab Creator is intended to store guitar tab created through the tool. It currently does not support in-line text editing. Any text you place in here will be lost. If you need to comment on your tab, please use the "Tab Notes" section located below.