Sound will begin in 5 seconds

One Gesture to Another

Chords
01234567891011121314151617181920212223
E
B
G
D
A
E
B
0 1 2 3 4 5 6 7 8 9 10 11 12 13 14 15 16 17 18 19 20 21 22 23
Song Science #1: How Pros Use 6 Chords to Write Hit Songs
(/) Slide Up  (\) Slide Down  (h) Hammer On  (p) Pull Off  (b) Bend (r) Release (v) Vibrato

Stave 1:

E|-----12------------|-----------------7--------|-----------------5--------
B|---------------12--|--9-----------9-----------|--7-----------7-----------
G|-----12-----7------|-----------8--------------|-----------6--------------
D|--7------------12--|--------9-----------------|--------7-----------------
A|------------7------|--7--7--------------------|--5--5--------------------
E|--7----------------|--------------------7--0--|--------------------5--0--

Stave 2:

E|--------------------|--------------------5--4-----|--
B|--5--4--2-----------|--0--------2-----4--5--4-----|--
G|--2--------4--2--1--|--1--------2-----5--6--5-----|--
D|--2-----------------|--4--------4-----4--5--4-----|--
A|--2-----------------|--2--------4-----6--7--6-----|--
E|-----------------0--|--0--------2-----4--5--4-----|--

Stave 3:

E|--------------------------------|--------------------|-----------------------
B|-----5-----5-----5-----5-----5--|-----6-----6-----6--|-----10-----10-----10--
G|-----6-----6-----6-----6-----6--|-----4-----4-----4--|-----11-----11-----11--
D|-----6-----6-----6-----6-----6--|-----6-----6-----6--|-----11-----11-----11--
A|--4-----------4-----4-----------|--4-----------4-----|--9-------------9------
E|--------4-----------------4-----|--------4-----------|---------9-------------

Stave 4:

E|-----------------|--------------------|-----------------
B|--7-----7-----7--|-----------0-----0--|--4-----5-----4--
G|--8-----8-----8--|-----1-----1-----1--|--5-----6-----5--
D|--7-----7-----7--|-----2-----2-----2--|--4-----5-----4--
A|-----9-----------|-----2--2--2-----2--|--6-----7-----6--
E|--7--------7-----|--0-----------0-----|--4-----5-----4--

http://www.guitartabcreator.com
Guitar Tab Creator is intended to store guitar tab created through the tool. It currently does not support in-line text editing. Any text you place in here will be lost. If you need to comment on your tab, please use the "Tab Notes" section located below.