Sound will begin in 5 seconds

Gary Moore Style Licks

01234567891011121314151617181920212223
E
B
G
D
A
E
B
0 1 2 3 4 5 6 7 8 9 10 11 12 13 14 15 16 17 18 19 20 21 22 23
Song Science #1: How Pros Use 6 Chords to Write Hit Songs
(/) Slide Up  (\) Slide Down  (h) Hammer On  (p) Pull Off  (b) Bend (r) Release (v) Vibrato

Stave 1:

E|-----------------------------------------------------------
B|----------8------------------------------------5-----------
G|-------5-----7b9v--5b6-------------------7--5-----5v-------
D|--5/7-------------------7/------------5---------------7/0--
A|-----------------------------------------------------------
E|-----------------------------------------------------------

Stave 2:

E|-------5--7b9v--7--5----------------------------
B|--3/5-----------------8-------------------------
G|-------------------------7b9v--7--5--4-----5b6--
D|----------------------------------------7-------
A|------------------------------------------------
E|------------------------------------------------

Stave 3:

E|--5-----------------------------------------5--8b10v--8--5---------------------
B|-----8p5-------5-------------------------5------------------5------------------
G|----------7b8-----7b8r7p5-----7-----5h7------------------------7b8--7--5-------
D|---------------------------7-----7----------------------------------------7/0--
A|-------------------------------------------------------------------------------
E|-------------------------------------------------------------------------------

http://www.guitartabcreator.com
Guitar Tab Creator is intended to store guitar tab created through the tool. It currently does not support in-line text editing. Any text you place in here will be lost. If you need to comment on your tab, please use the "Tab Notes" section located below.