Sound will begin in 5 seconds

Recover Revive

Chords
01234567891011121314151617181920212223
E
B
G
D
A
E
B
0 1 2 3 4 5 6 7 8 9 10 11 12 13 14 15 16 17 18 19 20 21 22 23
Song Science #1: How Pros Use 6 Chords to Write Hit Songs
(/) Slide Up  (\) Slide Down  (h) Hammer On  (p) Pull Off  (b) Bend (r) Release (v) Vibrato

Stave 1:

E|--------------------------------------------------------------------------------
B|---------------------------------------------10-10---------------10-10-10-10-10-
G|-----11-11-----11-11-----11-11-----11-11---------------11-11--------------------
D|-----9--9------9--9------9--9------9--9------9--9------9--9------9--9--9--9--9--
A|-9-9-9--9--9-9-9--9--9-9-9--9--9-9-9--9--9-9-9--9--9-9-9--9--9-9-9--9--9--9--9--
D|-9-9-------9-9-------9-9-------9-9-------9-9-------9-9-------9-9-------9--9--9--

Stave 2:

E|--------------------------------0--0------0--0----------------------------------------------
B|--------------------------------10-10-----10-10---------------------12-12-12-14-14-14-14-14-
G|------------11-11-----11-11-----11-11-----11-11-----11-11-----11----11-11-11-11-11-11-11-11-
D|-0----0----0--0--0-0-0--0--0-0-0--0--0-0-0--0--0-0-0--0--0-0-0-----0--0--0--0--0--0--0--0--
A|-0----0----0--0--0-0-0--0--0-0-0--0--0-0-0--0--0-0-0--0--0-0-0-----0--0--0--0--0--0--0--0--
D|-0----0----0--0--0-0-0--0--0-0-0--0--0-0-0--0--0-0-0--0--0-0-0-----0--0--0--0--0--0--0--0--

Stave 3:

E|------------------------------------------------------------------
B|------------------------------------------------------------------
G|------------------------------------------------------------------
D|------------------------------------------------------------------
A|------------------------------------------------------------------
D|-9-9-9-9-9-9-9-9-9-9-9-9-9-9-9-9-9-9-9-9-9-9-9-9-9-9-9-9----9-7-5-

Stave 4:

E|----9-------9-------9-------9-------9-------9-------9-------9-------9-
B|------10------10------10------10------10------10------10------10------
G|-11------11------11------11------11------11------11------11------11---
D|----------------------------------------------------------------------
A|----------------------------------------------------------------------
D|----------------------------------------------------------------------

Stave 5:

E|-------------
B|-------------
G|-------------
D|-7-7---3-3-3-
A|-5-5-8-3-3-3-
D|-----8-3-3-3-

Stave 6:

E|-----------------------------------------------------------------------------------------------
B|-----------------------------------------------------------------------------------------------
G|-----------------------------------------------------------------------------------------------
D|-----------------------------------------------------------------------------------------------
A|-----------------------------------------------------------------------------------------------
D|-7-7-7-7-7-7-7-7-7-7-7-7-7-7----9-9-9-9-9-9----12-12-12-12-12-12-5-5-5-5-5-5-5-5-5-5-5-5-5-5-5-

Stave 7:

E|-------------------------------
B|-------------------------------
G|-------------------------------
D|-------------------------------
A|-------------------------------
D|-2-2-2-2-2-2-2-2-2-2-2-2-2-2-2-

http://www.guitartabcreator.com
Guitar Tab Creator is intended to store guitar tab created through the tool. It currently does not support in-line text editing. Any text you place in here will be lost. If you need to comment on your tab, please use the "Tab Notes" section located below.