Sound will begin in 5 seconds

QZR

01234567891011121314151617181920212223
E
B
G
D
A
E
B
0 1 2 3 4 5 6 7 8 9 10 11 12 13 14 15 16 17 18 19 20 21 22 23
(/) Slide Up  (\) Slide Down  (h) Hammer On  (p) Pull Off  (b) Bend (r) Release (v) Vibrato

Stave 1:

D|-----------------------------------------------------------------------------------------------------
A|-----------------------------------------------------------------------------------------------------
F|-----------------------------------------------------------------------------------------------------
C|-----------8--8--------------------5--5--------------------------------------------------------------
G|-----------------------------------------------------------------------------------------------------
C|--8--8--------------8--8--5--5--------------5--5-----0--0--0--0--0-----0-----0--0--0--0--0--0--0--0--

Stave 2:

D|--------------------------------------------------------------------------------------
A|--------------------------------------------------------------------------------------
F|--------------------------------------------------------------------------------------
C|--------------8-----------------5--5--5--5--------------------------------------------
G|--------------------------------------------------------------------------------------
C|--8--8--8--8--------5--5--5--5-----------------0-----0-----0-----0-----0-----0-----0--

Stave 3:

D|---------------------------------------------------------------------------------------
A|---------------------------------------------------------------------------------------
F|---------------------------------------------------------------------------------------
C|---------------------------------------------------------------------------------------
G|---------------------------------------------------------------------------------------
C|--0--0-----0--8-----12-----0--0-----0--12-----8-----0--0-----0--12-----0--0-----0--12--

Stave 4:

D|---------------------------------------------------------------------------------------------
A|---------------------------------------------------------------------------------------------
F|---------------------------------------------------------------------------------------------
C|---------------------------------------------------------------------------------------------
G|---------------------------------------------------------------------------------------------
C|--0--0-----0--8-----12-----0--0-----0--12-----8-----0--0-----0--12-----0--0-----0--8-----12--

Stave 5:

D|-----------------------------------------------------------------------------------------------
A|-----------------------------------------------------------------------------------------------
F|-----------------------------------------------------------------------------------------------
C|-----------------------------------------------------------------------------------------------
G|-----------------------------------------------------------------------------------------------
C|--8--8--8-----8--8--8-----5--5--5-----5--5--5-----0--0--0-----0--0--0-----0--0--0-----0--0--0--

Stave 6:

D|-----------------------------------------------------------------------------------------------
A|-----------------------------------------------------------------------------------------------
F|--------3-----------3-----------0-----------0-----------7-----------7-----------0-----------3--
C|-----------------------------------------------------------------------------------------------
G|-----------------------------------------------------------------------------------------------
C|--0--0--------0--0--------0--0--------0--0--------0--0--------0--0--------0--0--------0--0-----

Stave 7:

D|--------------------------------------------------------------------
A|--------------------------------------------------------------------
F|--------------------------------------------------------------------
C|-----8-----------5--------------------------------------------------
G|--------------------------------------------------------------------
C|--8-----8-----5-----5-----0-----0-----0-----0--0--0-----0--0--0--0--

Stave 8:

D|--------------------------------------------------------------
A|--------------------------------------------------------------
F|--------------------------------------------------------------
C|-----8-----------5-----------0--------------0-----------0-----
G|--------------------------------------------------------------
C|--8-----8-----5-----5-----0-----0-----0--0--------0--0--------

Stave 9:

D|---------------------------------------------------------------------------------------
A|---------------------------------------------------------------------------------------
F|------------------------------------------------------------7--------------------------
C|--------8--10--8-----------5-----------5--------------0--------------------0-----------
G|---------------------------------------------------------------------------------------
C|--8--8---------------5--5--------5--5--------0--0--0--------------0--0--0--------0-----

Stave 10:

D|-----------------------------------------------------------------------
A|-----------------------------------------------------------------------
F|-----------------------------------------------------------------------
C|--------8-----------8-----------5-----------5--------0--------0--7-----
G|-----------------------------------------------------------------------
C|--8--8--------8--8--------5--5--------5--5--------0-----0--0-----------

Stave 11:

D|------------------------------------------------------------
A|------------------------------------------------------------
F|------------------------------------------------------------
C|--------0--------------0--------------0--------------7--12--
G|------------------------------------------------------------
C|--0-----------0--0-----------0--0-----------0--0------------

Stave 12:

D|--------------------------------------------------------------------------
A|--------------------------------------------------------------------------
F|--------------------------------------------------------------------------
C|--------------------------------------------------------------------------
G|--------------------------------------------------------------------------
C|--0--0--0--0--0--0--0--0--0--0--0--0--0--0--0--0--0--0--0--0--0--0--0--0--

http://www.guitartabcreator.com
Guitar Tab Creator is intended to store guitar tab created through the tool. It currently does not support in-line text editing. Any text you place in here will be lost. If you need to comment on your tab, please use the "Tab Notes" section located below.