FOR LEMNII

Chords

01234567891011121314151617181920212223
E
B
G
D
A
E
B
0 1 2 3 4 5 6 7 8 9 10 11 12 13 14 15 16 17 18 19 20 21 22 23
(/) Slide Up  (\) Slide Down  (h) Hammer On  (p) Pull Off  (b) Bend (r) Release (v) Vibrato

Stave 1:

E|--19--17--12--19--15--0---17--12--------------19--19----------------------17--17-----------------------------------------
B|--17--15--12--18--13--13--16--12----------17----------17--------------15----------15----------------------12-------------
G|--17--16--12--19--16--11--16--12------17------------------17------16------------------16--------------12------12---------
D|--x---x---16--17--14--13--x---12------------------------------------------------------------------16--------------12/17--
A|--15--14--14--x---0---x---14--14--15--------------------------14------------------------------14-------------------------
E|--x---x---12--x---x---x---x---12----------------------------------------------------------12-----------------------------

Stave 2:

E|----------19-------------------------15-------------------------0--------------17--12--
B|------18------18-----------------13------13-----------------13-------------16------12--
G|--19--------------19---------16--------------16---------11-------------16----------12--
D|-------------------------14----------------------14\13-----------------------------12--
A|----------------------0--------------------------------------------14--------------14--
E|-----------------------------------------------------------------------------------12--

							http://www.guitartabcreator.com
Instruments
{"strings":[[[19,17,12,19,15,0,17,12,".",".",".",19,19,".",".",".",".",".",17,17,".",".",".",".",".",".",".",".",".",".","."],[17,15,12,18,13,13,16,12,".",".",17,".",".",17,".",".",".",15,".",".",15,".",".",".",".",".",12,".",".",".","."],[17,16,12,19,16,11,16,12,".",17,".",".",".",".",17,".",16,".",".",".",".",16,".",".",".",12,".",12,".",".","."],["x0","x0",16,17,14,13,"x16",12,".",".",".",".",".",".",".",".",".",".",".",".",".",".",".",".",16,".",".",".",12,"/",17],[15,14,14,"x0",0,"x14",14,14,15,".",".",".",".",".",".",14,".",".",".",".",".",".",".",14,".",".",".",".",".",".","."],["x0","x0",12,"x0","x16","x14","x16",12,".",".",".",".",".",".",".",".",".",".",".",".",".",".",12,".",".",".",".",".",".",".","."]],[[".",".",19,".",".",".",".",".",".",15,".",".",".",".",".",".",".",0,".",".",".",17,12],[".",18,".",18,".",".",".",".",13,".",13,".",".",".",".",".",13,".",".",".",16,".",12],[19,".",".",".",19,".",".",16,".",".",".",16,".",".",".",11,".",".",".",16,".",".",12],[".",".",".",".",".",".",14,".",".",".",".",".",14,"\\",13,".",".",".",".",".",".",".",12],[".",".",".",".",".",0,".",".",".",".",".",".",".",".",".",".",".",".",14,".",".",".",14],[".",".",".",".",".",".",".",".",".",".",".",".",".",".",".",".",".",".",".",".",".",".",12]]],"numberofstrings":6,"notes":["E","B","G","D","A","E","B"],"capo":0,"stringnotes":["E4","B3","G3","D3","A2","E2"],"comments":["Stave 1:","Stave 2:"],"timing":[[null,null,null,null,null,null,null,null,null,null,null,null,null,null,null,null,null,null,null,null,null,null,null,null,null,null,null,null,null,null,null,null],[null,null,null,null,null,null,null,null,null,null,null,null,null,null,null,null,null,null,null,null,null,null,null]],"timingvisible":false,"tabcounter":23,"stave":1,"totalstaves":2,"instrument":"6guitar","selectedtuning":"6_standard","version":"13"}

Member for

1 week 5 days
Submitted by davidpetit641 on Thu, 2020-11-19 22:42