Sound will begin in 5 seconds

Sad song solo 1

01234567891011121314151617181920212223
E
B
G
D
A
E
B
0 1 2 3 4 5 6 7 8 9 10 11 12 13 14 15 16 17 18 19 20 21 22 23
Song Science #1: How Pros Use 6 Chords to Write Hit Songs
(/) Slide Up  (\) Slide Down  (h) Hammer On  (p) Pull Off  (b) Bend (r) Release (v) Vibrato

Stave 1:

E|--12--11--------------------------------------------------------12------14------15--19\17-------------
B|----------12\7--7--8--5--4------------------------14\12-----12------12------12-------------17b19------
G|----------------------------12b14--12--11--9------------------------------------------------------16--
D|----------------------------------------------13------------------------------------------------------
A|------------------------------------------------------------------------------------------------------
E|------------------------------------------------------------------------------------------------------

Stave 2:

E|--2-------------------5--5--3/7--7b9------------------------------------------------------15--14------12--
B|-----3--4-----------------------------------8--5---------------12--10--12/16--16--14--16----------14------
G|-----------4--------------------------8--9--------4--2-----11---------------------------------------------
D|--------------4/7--7------------------------------------9-------------------------------------------------
A|----------------------------------------------------------------------------------------------------------
E|----------------------------------------------------------------------------------------------------------

http://www.guitartabcreator.com
Guitar Tab Creator is intended to store guitar tab created through the tool. It currently does not support in-line text editing. Any text you place in here will be lost. If you need to comment on your tab, please use the "Tab Notes" section located below.