Graceless Guitar 1

Chords

01234567891011121314151617181920212223
E
B
G
D
A
E
B
0 1 2 3 4 5 6 7 8 9 10 11 12 13 14 15 16 17 18 19 20 21 22 23
(/) Slide Up  (\) Slide Down  (h) Hammer On  (p) Pull Off  (b) Bend (r) Release (v) Vibrato

Stave 1:

E|-------------------------------
B|--9--10--9-----9--10--9--------
G|------------9------------4--6--
D|-------------------------------
A|-------------------------------
E|-------------------------------

Stave 2:

E|--------
B|--9--7--
G|--------
D|--------
A|--------
E|--------

With Slide

E|--------
B|--------
G|--9/13--
D|--------
A|--------
E|--------

With slide

E|--------
B|--------
G|--9/11--
D|--------
A|--------
E|--------

Stave 5:

E|-----------
B|-----------
G|-----------
D|--9--------
A|--7-----7--
E|--------5--

Stave 6:

E|----------------
B|--14--12--9-----
G|-------------9--
D|----------------
A|----------------
E|----------------

Stave 7:

E|-----------------
B|--14--12--9------
G|-------------11--
D|-----------------
A|-----------------
E|-----------------

							http://www.guitartabcreator.com
Instruments
{"strings":[[[".",".",".",".",".",".",".",".","."],[9,10,9,".",9,10,9,".","."],[".",".",".",9,".",".",".",4,6],[".",".",".",".",".",".",".",".","."],[".",".",".",".",".",".",".",".","."],[".",".",".",".",".",".",".",".","."]],[[".","."],[9,7],[".","."],[".","."],[".","."],[".","."]],[[".",".","."],[".",".","."],[9,"/",13],[".",".","."],[".",".","."],[".",".","."]],[[".",".","."],[".",".","."],[9,"/",11],[".",".","."],[".",".","."],[".",".","."]],[[".","_","."],[".","_","."],[".","_","."],[9,"_","."],[7,"_",7],[".","_",5]],[[".",".",".","."],[14,12,9,"."],[".",".",".",9],[".",".",".","."],[".",".",".","."],[".",".",".","."]],[[".",".",".","."],[14,12,9,"."],[".",".",".",11],[".",".",".","."],[".",".",".","."],[".",".",".","."]]],"numberofstrings":6,"notes":["E","B","G","D","A","E","B"],"capo":0,"stringnotes":["E4","B3","G3","D3","A2","E2"],"comments":["Stave 1:","Stave 2:","With Slide","With slide","Stave 5:","Stave 6:","Stave 7:"],"timing":[["W","W","W","W","W","W","W","W","W"],["W","W"],["W",null,"W"],["W",null,"W"],["W",null,"W"],["W","W","W","W"],["W","W","W","W"]],"timingvisible":false,"tabcounter":4,"stave":6,"totalstaves":7,"instrument":"6guitar","selectedtuning":"6_standard","version":"13"}

Member for

2 years 8 months
Submitted by david stano on Sun, 2020-06-28 21:40