Sound will begin in 5 seconds

Lead Via Solis Occassum

Chords
01234567891011121314151617181920212223
E
B
G
D
A
E
B
0 1 2 3 4 5 6 7 8 9 10 11 12 13 14 15 16 17 18 19 20 21 22 23
Song Science #1: How Pros Use 6 Chords to Write Hit Songs
(/) Slide Up  (\) Slide Down  (h) Hammer On  (p) Pull Off  (b) Bend (r) Release (v) Vibrato

Stave 1:

E|--14--12--11----------------------|--14--12--11--12--14----------------------|--14--12--11----------------------|--14--12--11--12--14----------------------|--
B|--------------12------12------13--|----------------------12------12------13--|--------------12------12------13--|----------------------12------12------13--|--
G|------------------13------13------|--------------------------13------13------|------------------13------13------|--------------------------13------13------|--
D|----------------------------------|------------------------------------------|----------------------------------|------------------------------------------|--
A|----------------------------------|------------------------------------------|----------------------------------|------------------------------------------|--
E|----------------------------------|------------------------------------------|----------------------------------|------------------------------------------|--

Stave 2:

E|---------------------------------------------------|--------------------------------------------|--------------------------|-----------------
B|--9-----------9---------9-------------9------------|--------------------------------------------|--------------------------|-----------------
G|-----11\9/11---------------11--9--11---------------|--------------------------------------------|--------------------6-----|-----------------
D|-----------------11----------------------11--9-----|--4--2----------------4--2------------6-----|--6--6--7--6--7--9-----9--|--4--2-----------
A|---------------------------------------------------|--------3/5--2--------------3/5\3-----------|--------------------------|--------3--5--3--
E|---------------------------------------------------|-------------2------------------------------|--------------------------|-----------------

Stave 3:

E|-------------------------------------------------------------|--------------------------------|--------------------------------------------|--
B|--7--5--4-----------------------------------------9--10--12--|--7--5--4--5--7-----------------|--7--5--4-----------------------4--5--7-----|--
G|-----------4-----4-----5--7--7--9--4--4--4-----4-------------|-----------------4-----4-----5--|-----------4-----4-----5-----------------6--|--
D|--------------6-----6-----------------------6----------------|--------------------6-----6-----|--------------6-----6-----------------------|--
A|-------------------------------------------------------------|--------------------------------|--------------------------------------------|--
E|-------------------------------------------------------------|--------------------------------|--------------------------------------------|--

Stave 4:

E|-----------------------------|------------------------------------------------------
B|-----------------------------|--7--9-----7--9--10--12/14\---12--12--12--12--12--12--
G|-----------------------------|--------9---------------------------------------------
D|-----------------------------|------------------------------------------------------
A|-----------------------------|------------------------------------------------------
E|--0--2--4--0--2--4--2--0--2--|------------------------------------------------------

Stave 5:

E|-----------------------------------------------------------------|---------------------
B|-----------------------------------------------------------------|---------------------
G|-----------------------------------------------------------6-----|---------------------
D|--4--2--------------4--2--------------6--6--6--7--6--7--9-----9--|--4\2----------------
A|--------3--5--3--2--------3--5--3--2-----------------------------|-------3/5--3--2-----
E|-----------------------------------------------------------------|------------------2--

http://www.guitartabcreator.com
Guitar Tab Creator is intended to store guitar tab created through the tool. It currently does not support in-line text editing. Any text you place in here will be lost. If you need to comment on your tab, please use the "Tab Notes" section located below.