Sound will begin in 5 seconds

Em blues lick

01234567891011121314151617181920212223
E
B
G
D
A
E
B
0 1 2 3 4 5 6 7 8 9 10 11 12 13 14 15 16 17 18 19 20 21 22 23
Song Science #1: How Pros Use 6 Chords to Write Hit Songs
(/) Slide Up  (\) Slide Down  (h) Hammer On  (p) Pull Off  (b) Bend (r) Release (v) Vibrato

Stave 1:

E|------15p12------15p12------15v--14b16------------------------10h12b10--
B|--12---------12---------12--------------15b17v--------------------------
G|------------------------------------------------14b16--14p12------------
D|------------------------------------------------------------------------
A|------------------------------------------------------------------------
E|------------------------------------------------------------------------

Stave 2:

E|---------------------------------------12p10h12--14b15------12--12\10--
B|--12p10h12----------------------------------------------15-------------
G|------------9--11/12---------------------------------------------------
D|----------------------9--12v-------------------------------------------
A|------------------------------10--12v----------------------------------
E|-----------------------------------------------------------------------

Stave 3:

E|-----------------------------------------------------19\17--15v--14b15------12v--
B|--10h12--15b17-------------------------------17--20---------------------15-------
G|----------------16--14------------14/16--19--------------------------------------
D|------------------------17v--14v-------------------------------------------------
A|---------------------------------------------------------------------------------
E|---------------------------------------------------------------------------------

http://www.guitartabcreator.com
Guitar Tab Creator is intended to store guitar tab created through the tool. It currently does not support in-line text editing. Any text you place in here will be lost. If you need to comment on your tab, please use the "Tab Notes" section located below.