Won my heart

Chords

01234567891011121314151617181920212223
E
B
G
D
A
E
B
0 1 2 3 4 5 6 7 8 9 10 11 12 13 14 15 16 17 18 19 20 21 22 23
(/) Slide Up  (\) Slide Down  (h) Hammer On  (p) Pull Off  (b) Bend (r) Release (v) Vibrato

Intro:

E|--------------------|----------------------------|--------------------|---------------------|--
B|--12----------------|--12------------------------|--12----------------|--12-----------------|--
G|------13--11--------|------13--9--------9h11--9--|------13--11--------|------13--8b9--------|--
D|--------------------|----------------------------|--------------------|---------------------|--
A|--------------------|----------------------------|--------------------|---------------------|--
E|--------------------|----------------------------|--------------------|---------------------|--

Instrumental:

E|-------------------|-----------------------------|--------------------------|--9-----7-----------------|--
B|-------------------|--7-----------------------7--|--9-----------------------|--------------9--7--------|--
G|--8h9--------------|-----------------------9-----|-----------------------9--|--------------------9--8--|--
D|-------------------|-----------------------------|--------------------------|--------------------------|--
A|-------------------|-----------------------------|--------------------------|--------------------------|--
E|-------------------|-----------------------------|--------------------------|--------------------------|--

							http://www.guitartabcreator.com
Instruments
{"title":"Won my heart","strings":[[[".",".",".","_","_","|",".",".",".","_","_",".",".",".",".","|",".",".",".","_","_","|",".",".",".",".",".","_","_","|"],[12,".",".","_","_","|",12,".",".","_","_",".",".",".",".","|",12,".",".","_","_","|",12,".",".",".",".","_","_","|"],[".",13,11,"_","_","|",".",13,9,"_","_",9,"h",11,9,"|",".",13,11,"_","_","|",".",13,8,"b",9,"_","_","|"],[".",".",".","_","_","|",".",".",".","_","_",".",".",".",".","|",".",".",".","_","_","|",".",".",".",".",".","_","_","|"],[".",".",".","_","_","|",".",".",".","_","_",".",".",".",".","|",".",".",".","_","_","|",".",".",".",".",".","_","_","|"],[".",".",".","_","_","|",".",".",".","_","_",".",".",".",".","|",".",".",".","_","_","|",".",".",".",".",".","_","_","|"]],[[".",".",".","_","_","_","_","|",".","_","_","_","_","_","_",".",".","|",".","_","_","_","_","_","_",".","|",9,"_",7,"_",".",".",".",".","|"],[".",".",".","_","_","_","_","|",7,"_","_","_","_","_","_",".",7,"|",9,"_","_","_","_","_","_",".","|",".","_",".","_",9,7,".",".","|"],[8,"h",9,"_","_","_","_","|",".","_","_","_","_","_","_",9,".","|",".","_","_","_","_","_","_",9,"|",".","_",".","_",".",".",9,8,"|"],[".",".",".","_","_","_","_","|",".","_","_","_","_","_","_",".",".","|",".","_","_","_","_","_","_",".","|",".","_",".","_",".",".",".",".","|"],[".",".",".","_","_","_","_","|",".","_","_","_","_","_","_",".",".","|",".","_","_","_","_","_","_",".","|",".","_",".","_",".",".",".",".","|"],[".",".",".","_","_","_","_","|",".","_","_","_","_","_","_",".",".","|",".","_","_","_","_","_","_",".","|",".","_",".","_",".",".",".",".","|"]]],"numberofstrings":6,"notes":["E","B","G","D","A","E","B"],"capo":0,"stringnotes":["E4","B3","G3","D3","A2","E2"],"comments":["Intro:","Instrumental:"],"timing":[["W","W","W",null,null,null,"W","W","W",null,null,"W",null,"W","W",null,"W","W","W",null,null,null,"W","W","W",null,"W"],["H",null,"H",null,null,null,null,"W","H",null,"W","W",null,"W",null,"H","H","W","H","W","W","W","W","W","W","H",null,"H",null,"H",null,"H","H","H","H"]],"timingvisible":false,"tabcounter":36,"stave":1,"totalstaves":2,"instrument":"6guitar","selectedtuning":"6_standard","version":"13"}

Member for

9 months 3 weeks
Submitted by davec123 on Tue, 2019-12-31 02:32