Sound will begin in 5 seconds

semafor 2

01234567891011121314151617181920212223
E
B
G
D
A
E
B
0 1 2 3 4 5 6 7 8 9 10 11 12 13 14 15 16 17 18 19 20 21 22 23
Song Science #1: How Pros Use 6 Chords to Write Hit Songs
(/) Slide Up  (\) Slide Down  (h) Hammer On  (p) Pull Off  (b) Bend (r) Release (v) Vibrato

Stave 1:

E|--------------------------------------------
B|--------11--13--13b15v--------13b15v--------
G|--0/12--------------------------------------
D|--------------------------------------------
A|--------------------------------------------
E|--------------------------------------------

Stave 2:

E|-----------------------11----------
B|--13b15b13--11--13b15------13--11--
G|-----------------------------------
D|-----------------------------------
A|-----------------------------------
E|-----------------------------------

Stave 3:

E|--13----------11-----13b15--
B|------11--13----------------
G|----------------------------
D|----------------------------
A|----------------------------
E|----------------------------

Stave 4:

E|-----------------------------
B|-----------------------------
G|-----------------------------
D|--------8--------------------
A|--0/10-----10--8------8--10--
E|------------------10---------

http://www.guitartabcreator.com
Guitar Tab Creator is intended to store guitar tab created through the tool. It currently does not support in-line text editing. Any text you place in here will be lost. If you need to comment on your tab, please use the "Tab Notes" section located below.