Sound will begin in 5 seconds

I could have lied solo

01234567891011121314151617181920212223
E
B
G
D
A
E
B
0 1 2 3 4 5 6 7 8 9 10 11 12 13 14 15 16 17 18 19 20 21 22 23
Song Science #1: How Pros Use 6 Chords to Write Hit Songs
(/) Slide Up  (\) Slide Down  (h) Hammer On  (p) Pull Off  (b) Bend (r) Release (v) Vibrato

Stave 1:

E|------------------------------------------------------------------------------------------------------
B|------------------------------------------------------------------------------------------------------
G|--------------------------------------------11--11--11--11--11--9--11--11--9--11--12b14r12--11--7--7--
D|---------------7--9b11r9----------9--11h12------------------------------------------------------------
A|-------5--7/9-------------10--10----------------------------------------------------------------------
E|--5/7-------------------------------------------------------------------------------------------------

Stave 2:

E|----------------------------------------------------7---------7-------------------------------------
B|----------------------7--------7--------7--------7-----7--10-----10--7--10--10p7--7h8p7-----7-------
G|--9--7--9p7-----7--9-----9b11-----9b11-----9b11------------------------------------------9-----7b9--
D|-------------9--------------------------------------------------------------------------------------
A|----------------------------------------------------------------------------------------------------
E|----------------------------------------------------------------------------------------------------

Stave 3:

E|------------------------------------------------------------------------------------------------
B|-----------------8--7--7h8p7--------------7-----------------------------------------------------
G|------------------------------7--------7-----7--------------------------------------------------
D|--9--7--9--9--9------------------9--9-----------9--9--9--7--9------------------------12--14/16--
A|---------------------------------------------------------------7/9--9/10--10--12/14-------------
E|------------------------------------------------------------------------------------------------

Stave 4:

E|--------------------15b17r15--14----------------------------------------------------------
B|---------15--17b19----------------15----------------------7-------------------------------
G|--14h16-------------------------------14\9\7--7--9--7--9-----9b10-------------------------
D|-------------------------------------------------------------------9p7--7/9\5--4/5\4\2p0--
A|------------------------------------------------------------------------------------------
E|------------------------------------------------------------------------------------------

http://www.guitartabcreator.com
Guitar Tab Creator is intended to store guitar tab created through the tool. It currently does not support in-line text editing. Any text you place in here will be lost. If you need to comment on your tab, please use the "Tab Notes" section located below.