Blues

Chords

01234567891011121314151617181920212223
E
B
G
D
A
E
B
0 1 2 3 4 5 6 7 8 9 10 11 12 13 14 15 16 17 18 19 20 21 22 23
(/) Slide Up  (\) Slide Down  (h) Hammer On  (p) Pull Off  (b) Bend (r) Release (v) Vibrato



E|--------------------------------------------------|--------------------------------------------------|--------------------------------------------------
B|--------------------------------------------------|--------------------------------------------------|--------------------------------------------------
G|--------------------------------------------------|--------------------------------------------------|--------------------------------------------------
D|--------------------------------------------------|--------------------------------------------------|--------------2--2--4--4--5--5--4--4--2--2--------
A|--------------2--2--4--4--5--5--4--4--2--2--------|--------------2--2--4--4--5--5--4--4--2--2--------|--0--0--4--4--------------------------------4--4--
E|--0--0--4--4--------------------------------4--4--|--0--0--4--4--------------------------------4--4--|--------------------------------------------------



E|--------------------------------------------------|--------------------------------------------------|--------------------------------------------------
B|--------------------------------------------------|--------------------------------------------------|--------------------------------------------------
G|--------------------------------------------------|--------------------------------------------1--1--|--------------------------------------------------
D|--------------------------------------------------|--------------2--2--4--4--------1--1--4--4--------|--------------------------------------------------
A|--------------2--2--4--4--5--5--4--4--2--2--------|--0--0--4--4--------------2--2--------------------|--------------2--2--4--4--5--5--4--4--2--2--------
E|--0--0--4--4--------------------------------4--4--|--------------------------------------------------|--0--0--4--4--------------------------------4--4--



E|-----0--------------------------------
B|-----0--------------------------------
G|-----1--------------------------------
D|-----2--------------------------------
A|-----2--------------------------------
E|-----0--------------------------------

							http://www.guitartabcreator.com
Instruments
{"title":"","strings":[[[".",".",".",".",".",".",".",".",".",".",".",".",".",".",".",".","|",".",".",".",".",".",".",".",".",".",".",".",".",".",".",".",".","|",".",".",".",".",".",".",".",".",".",".",".",".",".",".",".","."],[".",".",".",".",".",".",".",".",".",".",".",".",".",".",".",".","|",".",".",".",".",".",".",".",".",".",".",".",".",".",".",".",".","|",".",".",".",".",".",".",".",".",".",".",".",".",".",".",".","."],[".",".",".",".",".",".",".",".",".",".",".",".",".",".",".",".","|",".",".",".",".",".",".",".",".",".",".",".",".",".",".",".",".","|",".",".",".",".",".",".",".",".",".",".",".",".",".",".",".","."],[".",".",".",".",".",".",".",".",".",".",".",".",".",".",".",".","|",".",".",".",".",".",".",".",".",".",".",".",".",".",".",".",".","|",".",".",".",".",2,2,4,4,5,5,4,4,2,2,".","."],[".",".",".",".",2,2,4,4,5,5,4,4,2,2,".",".","|",".",".",".",".",2,2,4,4,5,5,4,4,2,2,".",".","|",0,0,4,4,".",".",".",".",".",".",".",".",".",".",4,4],[0,0,4,4,".",".",".",".",".",".",".",".",".",".",4,4,"|",0,0,4,4,".",".",".",".",".",".",".",".",".",".",4,4,"|",".",".",".",".",".",".",".",".",".",".",".",".",".",".",".","."]],[[".",".",".",".",".",".",".",".",".",".",".",".",".",".",".",".","|",".",".",".",".",".",".",".",".",".",".",".",".",".",".",".",".","|",".",".",".",".",".",".",".",".",".",".",".",".",".",".",".","."],[".",".",".",".",".",".",".",".",".",".",".",".",".",".",".",".","|",".",".",".",".",".",".",".",".",".",".",".",".",".",".",".",".","|",".",".",".",".",".",".",".",".",".",".",".",".",".",".",".","."],[".",".",".",".",".",".",".",".",".",".",".",".",".",".",".",".","|",".",".",".",".",".",".",".",".",".",".",".",".",".",".",1,1,"|",".",".",".",".",".",".",".",".",".",".",".",".",".",".",".","."],[".",".",".",".",".",".",".",".",".",".",".",".",".",".",".",".","|",".",".",".",".",2,2,4,4,".",".",1,1,4,4,".",".","|",".",".",".",".",".",".",".",".",".",".",".",".",".",".",".","."],[".",".",".",".",2,2,4,4,5,5,4,4,2,2,".",".","|",0,0,4,4,".",".",".",".",2,2,".",".",".",".",".",".","|",".",".",".",".",2,2,4,4,5,5,4,4,2,2,".","."],[0,0,4,4,".",".",".",".",".",".",".",".",".",".",4,4,"|",".",".",".",".",".",".",".",".",".",".",".",".",".",".",".",".","|",0,0,4,4,".",".",".",".",".",".",".",".",".",".",4,4]],[[".",0,"_","_","_","_","_","_","_","_","_","_"],[".",0,"_","_","_","_","_","_","_","_","_","_"],[".",1,"_","_","_","_","_","_","_","_","_","_"],[".",2,"_","_","_","_","_","_","_","_","_","_"],[".",2,"_","_","_","_","_","_","_","_","_","_"],[".",0,"_","_","_","_","_","_","_","_","_","_"]]],"numberofstrings":6,"notes":["E","B","G","D","A","E","B"],"capo":0,"stringnotes":["E4","B3","G3","D3","A2","E2"],"comments":["","",""],"timing":[["W","W","W","W","W","W","W","W","W","W","W","W","W","W","W","W",null,"W","W","W","W","W","W","W","W","W","W","W","W","W","W","W","W","W","W","W","W","W","W","W","W","W","W","W","W","W","W","W","W","W","W"],["W","W","W","W","W","W","W","W","W","W","W","W","W","W","W","W",null,"W","W","W","W","W","W","W","W","W","W","W","W","W","W","W","W",null,"W","W","W","W","W","W","W","W","W","W","W","W","W","W","W","W"],["W","W"]],"timingvisible":false,"tabcounter":12,"stave":2,"totalstaves":3,"instrument":"6guitar","selectedtuning":"6_standard","version":"13"}

Member for

3 years 9 months
Submitted by Dasheroo on Mon, 2020-03-30 05:44