5

Chords

01234567891011121314151617181920212223
E
B
G
D
A
E
B
0 1 2 3 4 5 6 7 8 9 10 11 12 13 14 15 16 17 18 19 20 21 22 23
(/) Slide Up  (\) Slide Down  (h) Hammer On  (p) Pull Off  (b) Bend (r) Release (v) Vibrato

Riff 1: gitarr 1. (spelas även av gitarr 2 dom två första vändorna efter att trummorna startat)

D|--------------------------------------------------------
A|--------------------------------------------------------
F|--------------------------------------------------------
C|--------------------------------------------------------
G|--------------------------------------------------------
D|--------------3-----------------------------------------
A|--1--------------------1--0-----------5-----2--4--------

Riff 1: gitarr 2. spelas på vändorna 3&4 efter att trummorna kommer in.

D|-----------------------------------------------------
A|-----------------------------------------------------
F|-----------------------------------------------------
C|--------------5--------------------------------------
G|--3--------------------3--2-----------7-----4--6-----
D|-----------------------------------------------------
A|-----------------------------------------------------

Riff 1: gitarr 3, spelas på intro samt sista vändan.

D|-----------------------------------------------------
A|-----------------------------------------------------
F|-----------------------------------------------------
C|--5-----------8--------5--4-----------------6--------
G|--------------------------------------7--------6-----
D|-----------------------------------------------------
A|-----------------------------------------------------

Riff 2: gitarr 1

D|--------------------------------------------------------------
A|--------------------------------------------------------0-----
F|-----------------------------------------------------3--------
C|--------------------------------5-----------------0-----------
G|--------------------------------------4--------4--------------
D|--------------------------------------------------------------
A|--1--------4--5-----------2--------------2--------------------

Riff 2: gitarr 2

D|--------------------------------------------------------------
A|--------------------------------------------------------0-----
F|-----------------------------------------------------3--------
C|--------------------------------8-----------------0-----------
G|--3--------6--7-----------------------7--------4--------------
D|--------------------------4--------------4--------------------
A|--------------------------------------------------------------

Riff 3: gitarr 1

D|--------------------------------------------------------------------------------------------------------
A|--------------------------------------------------------------------------------------------------------
F|--------------------------------------------------------------------------------------------------------
C|--------------------------------------------------------------------------------------------------------
G|--------------------------------------------------------------------------------------------------------
D|--2-----------2--------3--2-----------2-----3--3--2-----------2-----3-----2-----------2-----3--3--3-----
A|--0-----------0--------1--0-----------0-----1--1--0-----------0-----1-----0-----------0-----1--1--1-----

Riff 3: gitarr 2

D|-----------------------------------------------------------------------------------------------------
A|--------0-----------4-----------0-----------4-----------0-----------4-----------0-----------4--------
F|-----------0-----------0-----------0-----------0-----------0-----------0-----------0-----------0-----
C|-----------------------------------------------------------------------------------------------------
G|-----------------------------------------------------------------------------------------------------
D|--2-----------2-----------2-----------2-----------2-----------2-----------2-----------2--------------
A|--0-----------0-----------0-----------0-----------0-----------0-----------0-----------0--------------

Riff 4: gitarr 1

D|--------------------------------------------
A|--------------------------------------------
F|--------------------------------------------
C|--------------------------------------------
G|--4-----3-----------------------------------
D|--2-----1-----5--4-----5--4--3-----2--------
A|--------------3--2-----3--2--1-----0--------

Riff 4: gitarr 2, vändorna 3,4,5&6 (spelar samma som gitarr 1 vändorna 1&2)

D|--------------------------------------------
A|--------------------------------------------
F|--------------------------------------------
C|--5-----4-----------------------------------
G|--------------6--5-----6--5--4-----3--------
D|--------------------------------------------
A|--------------------------------------------

Riff 4 : gitarr 3, Vändorna 5&6 (samma som gitarr 1 vändorna 1&2, samma som gitarr 2 vändorna 3&4) (tapping på dessa toner)

D|------_-------------------------------------
A|------_-------------------------------------
F|--17--10--9--------16--9--8--------15--8--7--
C|------_-------------------------------------
G|------_-------------------------------------
D|------_-------------------------------------
A|------_-------------------------------------

Riff 5: gitarr 1. Bar 3 spelas varannan gång från och med tredje vändan

D|--------------------------|--------------------------|-----------------------------------
A|--------------------------|--------------------------|-----------------------------------
F|--------------------------|--------------------------|-----------------------------------
C|-----------5--------2-----|-----------5--------2-----|-----------------5--------2--------
G|--------------4--------4--|--------------4--------4--|--3-----------------4--------4-----
D|--------3-----------------|--------3-----------------|--------------3--------------------
A|--1-----------------------|--1-----------------------|-----1--1--------------------------

Riff 5: gitarr 2. (Spelar som gitarr 1 vändorna 1 till 4.)

D|--------------------------------|-----------------------------
A|--------------------------------|-----------------------------
F|--------------------------------|-----------------------------
C|-----------------8--------5-----|-----------8--------5--------
G|--6-----------------7--------7--|--------------7--------7-----
D|--------------3-----------------|--------3--------------------
A|-----1--1-----------------------|--1--------------------------

Riff 5: gitarr 3. (spelar som gitarr 1 vändorna 1-4, som gitarr 2 vändorna 5-8)

D|-----------------------------------|--------------------------------
A|-----------------------------------|--------------------------------
F|-----------------------------------|--------------------------------
C|--9-----------9--12--11---------8--|--------9--12--11---------8-----
G|-----7--7-------------------10-----|--7-------------------10--------
D|-----------------------------------|--------------------------------
A|-----------------------------------|--------------------------------

							http://www.guitartabcreator.com
Instruments
{"strings":[[[".",".",".",".",".",".",".",".",".",".",".",".",".",".",".",".",".","."],[".",".",".",".",".",".",".",".",".",".",".",".",".",".",".",".",".","."],[".",".",".",".",".",".",".",".",".",".",".",".",".",".",".",".",".","."],[".",".",".",".",".",".",".",".",".",".",".",".",".",".",".",".",".","."],[".",".",".",".",".",".",".",".",".",".",".",".",".",".",".",".",".","."],[".",".",".",".",3,".",".",".",".",".",".",".",".",".",".",".",".","."],[1,".",".",".",".",".",".",1,0,".",".",".",5,".",2,4,".","."]],[[".",".",".",".",".",".",".",".",".",".",".",".",".",".",".",".","_"],[".",".",".",".",".",".",".",".",".",".",".",".",".",".",".",".","_"],[".",".",".",".",".",".",".",".",".",".",".",".",".",".",".",".","_"],[".",".",".",".",5,".",".",".",".",".",".",".",".",".",".",".","_"],[3,".",".",".",".",".",".",3,2,".",".",".",7,".",4,6,"_"],[".",".",".",".",".",".",".",".",".",".",".",".",".",".",".",".","_"],[".",".",".",".",".",".",".",".",".",".",".",".",".",".",".",".","."]],[[".",".",".",".",".",".",".",".",".",".",".",".",".",".",".",".","."],[".",".",".",".",".",".",".",".",".",".",".",".",".",".",".",".","."],[".",".",".",".",".",".",".",".",".",".",".",".",".",".",".",".","."],[5,".",".",".",8,".",".",5,4,".",".",".",".",".",6,".","."],[".",".",".",".",".",".",".",".",".",".",".",".",7,".",".",6,"."],[".",".",".",".",".",".",".",".",".",".",".",".",".",".",".",".","."],[".",".",".",".",".",".",".",".",".",".",".",".",".",".",".",".","."]],[[".",".",".",".",".",".",".",".",".",".",".",".",".",".",".",".",".",".",".","."],[".",".",".",".",".",".",".",".",".",".",".",".",".",".",".",".",".",".",0,"."],[".",".",".",".",".",".",".",".",".",".",".",".",".",".",".",".",".",3,".","."],[".",".",".",".",".",".",".",".",".",".",5,".",".",".",".",".",0,".",".","."],[".",".",".",".",".",".",".",".",".",".",".",".",4,".",".",4,".",".",".","."],[".",".",".",".",".",".",".",".",".",".",".",".",".",".",".",".",".",".",".","."],[1,".",".",4,5,".",".",".",2,".",".",".",".",2,".",".",".",".",".","."]],[[".",".",".",".",".",".",".",".",".",".",".",".",".",".",".",".",".",".",".","_"],[".",".",".",".",".",".",".",".",".",".",".",".",".",".",".",".",".",".",0,"_"],[".",".",".",".",".",".",".",".",".",".",".",".",".",".",".",".",".",3,".","_"],[".",".",".",".",".",".",".",".",".",".",8,".",".",".",".",".",0,".",".","_"],[3,".",".",6,7,".",".",".",".",".",".",".",7,".",".",4,".",".",".","_"],[".",".",".",".",".",".",".",".",4,".",".",".",".",4,".",".",".",".",".","_"],[".",".",".",".",".",".",".",".",".",".",".",".",".",".",".",".",".",".",".","_"]],[[".",".",".",".",".",".",".",".",".",".",".",".",".",".",".",".",".",".",".",".",".",".",".",".",".",".",".",".",".",".",".",".",".","."],[".",".",".",".",".",".",".",".",".",".",".",".",".",".",".",".",".",".",".",".",".",".",".",".",".",".",".",".",".",".",".",".",".","."],[".",".",".",".",".",".",".",".",".",".",".",".",".",".",".",".",".",".",".",".",".",".",".",".",".",".",".",".",".",".",".",".",".","."],[".",".",".",".",".",".",".",".",".",".",".",".",".",".",".",".",".",".",".",".",".",".",".",".",".",".",".",".",".",".",".",".",".","."],[".",".",".",".",".",".",".",".",".",".",".",".",".",".",".",".",".",".",".",".",".",".",".",".",".",".",".",".",".",".",".",".",".","."],[2,".",".",".",2,".",".",3,2,".",".",".",2,".",3,3,2,".",".",".",2,".",3,".",2,".",".",".",2,".",3,3,3,"."],[0,".",".",".",0,".",".",1,0,".",".",".",0,".",1,1,0,".",".",".",0,".",1,".",0,".",".",".",0,".",1,1,1,"."]],[[".",".",".",".",".",".",".",".",".",".",".",".",".",".",".",".",".",".",".",".",".",".",".",".",".",".",".",".",".",".",".",".","."],[".",".",0,".",".",".",4,".",".",".",0,".",".",".",4,".",".",".",0,".",".",".",4,".",".",".",0,".",".",".",4,".","."],[".",".",".",0,".",".",".",0,".",".",".",0,".",".",".",0,".",".",".",0,".",".",".",0,".",".",".",0,".",".",".",0,"."],[".",".",".",".",".",".",".",".",".",".",".",".",".",".",".",".",".",".",".",".",".",".",".",".",".",".",".",".",".",".",".",".","."],[".",".",".",".",".",".",".",".",".",".",".",".",".",".",".",".",".",".",".",".",".",".",".",".",".",".",".",".",".",".",".",".","."],[2,".",".",".",2,".",".",".",2,".",".",".",2,".",".",".",2,".",".",".",2,".",".",".",2,".",".",".",2,".",".",".","."],[0,".",".",".",0,".",".",".",0,".",".",".",0,".",".",".",0,".",".",".",0,".",".",".",0,".",".",".",0,".",".",".","."]],[[".",".",".",".",".",".",".",".",".",".",".",".",".","."],[".",".",".",".",".",".",".",".",".",".",".",".",".","."],[".",".",".",".",".",".",".",".",".",".",".",".",".","."],[".",".",".",".",".",".",".",".",".",".",".",".",".","."],[4,".",3,".",".",".",".",".",".",".",".",".",".","."],[2,".",1,".",5,4,".",5,4,3,".",2,".","."],[".",".",".",".",3,2,".",3,2,1,".",0,".","."]],[[".",".",".",".",".",".",".",".",".",".",".",".",".","."],[".",".",".",".",".",".",".",".",".",".",".",".",".","."],[".",".",".",".",".",".",".",".",".",".",".",".",".","."],[5,".",4,".",".",".",".",".",".",".",".",".",".","."],[".",".",".",".",6,5,".",6,5,4,".",3,".","."],[".",".",".",".",".",".",".",".",".",".",".",".",".","."],[".",".",".",".",".",".",".",".",".",".",".",".",".","."]],[[".","_",".",".",".",".",".",".",".",".",".",".","."],[".","_",".",".",".",".",".",".",".",".",".",".","."],[17,10,9,".",".",16,9,8,".",".",15,8,7],[".","_",".",".",".",".",".",".",".",".",".",".","."],[".","_",".",".",".",".",".",".",".",".",".",".","."],[".","_",".",".",".",".",".",".",".",".",".",".","."],[".","_",".",".",".",".",".",".",".",".",".",".","."]],[[".",".",".",".",".",".",".",".","|",".",".",".",".",".",".",".",".","|",".",".",".",".",".",".",".",".",".",".","."],[".",".",".",".",".",".",".",".","|",".",".",".",".",".",".",".",".","|",".",".",".",".",".",".",".",".",".",".","."],[".",".",".",".",".",".",".",".","|",".",".",".",".",".",".",".",".","|",".",".",".",".",".",".",".",".",".",".","."],[".",".",".",5,".",".",2,".","|",".",".",".",5,".",".",2,".","|",".",".",".",".",".",5,".",".",2,".","."],[".",".",".",".",4,".",".",4,"|",".",".",".",".",4,".",".",4,"|",3,".",".",".",".",".",4,".",".",4,"."],[".",".",3,".",".",".",".",".","|",".",".",3,".",".",".",".",".","|",".",".",".",".",3,".",".",".",".",".","."],[1,".",".",".",".",".",".",".","|",1,".",".",".",".",".",".",".","|",".",1,1,".",".",".",".",".",".",".","."]],[[".",".",".",".",".",".",".",".",".",".","|",".",".",".",".",".",".",".",".","."],[".",".",".",".",".",".",".",".",".",".","|",".",".",".",".",".",".",".",".","."],[".",".",".",".",".",".",".",".",".",".","|",".",".",".",".",".",".",".",".","."],[".",".",".",".",".",8,".",".",5,".","|",".",".",".",8,".",".",5,".","."],[6,".",".",".",".",".",7,".",".",7,"|",".",".",".",".",7,".",".",7,"."],[".",".",".",".",3,".",".",".",".",".","|",".",".",3,".",".",".",".",".","."],[".",1,1,".",".",".",".",".",".",".","|",1,".",".",".",".",".",".",".","."]],[[".",".",".",".",".",".",".",".",".",".","|",".",".",".",".",".",".",".",".","."],[".",".",".",".",".",".",".",".",".",".","|",".",".",".",".",".",".",".",".","."],[".",".",".",".",".",".",".",".",".",".","|",".",".",".",".",".",".",".",".","."],[9,".",".",".",9,12,11,".",".",8,"|",".",".",9,12,11,".",".",8,"."],[".",7,7,".",".",".",".",".",10,".","|",7,".",".",".",".",".",10,".","."],[".",".",".",".",".",".",".",".",".",".","|",".",".",".",".",".",".",".",".","."],[".",".",".",".",".",".",".",".",".",".","|",".",".",".",".",".",".",".",".","."]]],"numberofstrings":7,"notes":["D","A","F","C","G","D","A"],"capo":0,"stringnotes":["D3","A2","F2","C1","G1","D1","A0"],"comments":["Riff 1: gitarr 1. (spelas även av gitarr 2 dom två första vändorna efter att trummorna startat)","Riff 1: gitarr 2. spelas på vändorna 3&4 efter att trummorna kommer in.","Riff 1: gitarr 3, spelas på intro samt sista vändan.","Riff 2: gitarr 1","Riff 2: gitarr 2","Riff 3: gitarr 1","Riff 3: gitarr 2","Riff 4: gitarr 1","Riff 4: gitarr 2, vändorna 3,4,5&6 (spelar samma som gitarr 1 vändorna 1&2)","Riff 4 : gitarr 3, Vändorna 5&6 (samma som gitarr 1 vändorna 1&2, samma som gitarr 2 vändorna 3&4) (tapping på dessa toner)","Riff 5: gitarr 1. Bar 3 spelas varannan gång från och med tredje vändan","Riff 5: gitarr 2. (Spelar som gitarr 1 vändorna 1 till 4.)","Riff 5: gitarr 3. (spelar som gitarr 1 vändorna 1-4, som gitarr 2 vändorna 5-8)"],"timing":[[null,"W",null,null,null,"W",null,null,null,"W","W","W",null,"W",null,"W","W"],[null,"W",null,null,null,"W",null,null,"W","W",null,null,null,"W",null,"W","W"],[null,"W",null,null,null,"W",null,null,"W","W",null,null,null,"W",null,"W","W"],[null,"W",null,null,"W","W",null,null,null,"W",null,"W",null,"W","W",null,"W","W","W","W"],[null,"W",null,null,"W","W",null,null,null,"W",null,"W",null,"W","W",null,"W","W","W","W"],[null,"W",null,null,null,"W",null,null,"W","W",null,null,null,"W",null,"W","W","W",null,null,null,"W",null,"W",null,"W",null,null,null,"W",null,"W","W","W","W"],[null,"W",null,"W","W","W",null,"W","W","W",null,"W","W","W",null,"W","W","W",null,"W","W","W",null,"W","W","W",null,"W","W","W",null,"W","W"],[null,"W",null,"W",null,"W","W",null,null,"W","W",null,"W"],[null,"W",null,"W",null,"W","W",null,"W","W","W",null,"W"],[null,"W","W","W",null,null,null,"W","W",null,null,"W","W","W"],[null,"W",null,"W","W","W",null,"W","W",null,"W",null,"W","W","W",null,"W","W",null,"W","W","W","W","W","W","W","W","W","W","W"],[null,"W","W","W","W",null,"W",null,"W","W","W",null,"W",null,"W","W","W",null,"W","W","W"],[null,"W","W","W",null,null,"W","W",null,"W","W",null,"W",null,"W","W","W",null,"W","W"]],"timingvisible":false,"tabcounter":20,"stave":12,"totalstaves":13,"instrument":"7guitar","selectedtuning":"7guitar","version":"13"}

Member for

1 month
Submitted by Dasah on Sun, 2020-10-18 05:08