3

Chords

01234567891011121314151617181920212223
E
B
G
D
A
E
B
0 1 2 3 4 5 6 7 8 9 10 11 12 13 14 15 16 17 18 19 20 21 22 23
(/) Slide Up  (\) Slide Down  (h) Hammer On  (p) Pull Off  (b) Bend (r) Release (v) Vibrato

Riff 1:

D|-----------------------------------------|---------------------------------------------------
A|-----------------------------------------|---------------------------------------------------
F|-----------------------------------------|---------------------------------------------------
C|-----------------------------------------|---------------------------------------------------
G|---------4----5---------1---------6-5----|---------4----5------------------------------------
D|---------6----7---------3---------8\7----|---------6----7------------------------------------
A|----0--------------0---------0-----------|----0--------------4\1----0----1----0----1----4----

Riff 2: gitarr 1

D|-----------------------------------------|---------------------------------------------------
A|-----------------------------------------|---------------------------------------------------
F|-----------------------------------------|---------------------------------------------------
C|-----------------------------------------|----------------------------------------------8----
G|---------5----6b7---------4--------------|---------5----6b7----------------------------------
D|----5----------------4---------5----6----|----5----------------4----4----3----6----5---------
A|----3----------------2-------------------|----3----------------2-----------------------------

Riff 2: gitarr 2

D|-----------------------------------------|-----------------------------------------------------
A|-----------------------------------------|-----------------------------------------------------
F|-----------------------------------------|-----------------------------------------------------
C|-----------------------------------------|-----------------------------------------------12----
G|---------5----6b7---------7--------------|---------5----6b7------------------------------------
D|----5----------------4---------8----9----|----5----------------4----8----7----10----9----------
A|----3----------------2-------------------|----3----------------2-------------------------------

Riff 3:

D|----------------------------------------------------|-------------------------------------------------------------------
A|----------------------------------------------------|-------------------------------------------------------------------
F|----------------------------------------------------|--------------------------------------------------------------0----
C|-----------------------------------------------0----|------------------------------------------0------------------------
G|--------------------------------4---------1---------|-------------------------------------9---------9---------9---------
D|---------7----8----7h8p7h8p7----6----3--------------|---------7----8----7h8p7h8p7----6-------------------6--------------
A|----0-----------------------------------------------|----0--------------------------------------------------------------

Riff 4: gitarr 1

D|----------------------------------------------
A|----------------------------------------------
F|----------------------------------------------
C|----------------------------------------------
G|---------7----8b9---------7----8----7----6----
D|----0----------------0------------------------
A|----------------------------------------------

Riff 4: gitarr 2

D|--------------------------------------------
A|--------------------------------------------
F|--------------------------------------------
C|--------------------------------------------
G|----2--------------2------------------------
D|----0----3----4----0----3----4----3----2----
A|---------5----6---------5----6----5----4----

Riff 5:

D|-----------------------------|-------------------------------------------------------------
A|-----------------------------|-------------------------------------------------------------
F|-----------------------------|-------------------------------------------------1p0---------
C|------------------------0----|------------------------0--------------0----------------2----
G|--------------6--------------|--------------6-------------------2---------2----------------
D|---------7---------7---------|---------7---------7---------4-------------------------------
A|----0------------------------|----0--------------------------------------------------------

Riff 6:gitarr 1

D|-----------------------------|---------------------------------------
A|-----------------------------|---------------------------------------
F|-----------------------------|---------------------------------------
C|-----------------------------|---------------------------------------
G|-------------------3----2----|---------------------------------------
D|----2------------------------|----2----------------------------------
A|----0----4----1--------------|----0----1----0----1----4----3----6----

Riff 6: gitarr 2

D|--------------------------------|----------------------------------|-----------------------------|------------------------------
A|-------0----0----0----0----0----|----0----0----0----0----0----0----|----0----0----0----0----0----|----0----0----0----0----0-----
F|-------5----4----5----4----3----|----5----4----5----4----0----3----|----5----4----5----4----3----|----5----4----5----3----10----
C|--------------------------------|----------------------------------|-----------------------------|------------------------------
G|--------------------------------|----------------------------------|-----------------------------|------------------------------
D|--------------------------------|----------------------------------|-----------------------------|------------------------------
A|--------------------------------|----------------------------------|-----------------------------|------------------------------

Riff 7: gitarr 1

D|------------------------|------------------------|------------------------|------------------------
A|------------------------|------------------------|------------------------|------------------------
F|------------------------|------------------------|------------------------|------------------------
C|------------------------|------------------------|------------------------|------------------------
G|------------------------|------------------------|------------------------|------------------------
D|----2----5----3----2----|----2----5----3----2----|----2----5----3----2----|----2----5----3----6----
A|----0----3----1----0----|----0----3----1----0----|----0----3----1----0----|----0----3----1----4----

Riff 7: gitarr 2 (samma som gitarr 2 Riff 6

D|----
A|----
F|----
C|----
G|----
D|----
A|----

							http://www.guitartabcreator.com
Instruments
{"strings":[[[".",".",".",".",".",".",".",".",".","|",".",".",".",".",".",".",".",".",".",".","."],[".",".",".",".",".",".",".",".",".","|",".",".",".",".",".",".",".",".",".",".","."],[".",".",".",".",".",".",".",".",".","|",".",".",".",".",".",".",".",".",".",".","."],[".",".",".",".",".",".",".",".",".","|",".",".",".",".",".",".",".",".",".",".","."],[".",4,5,".",1,".",6,".",5,"|",".",4,5,".",".",".",".",".",".",".","."],[".",6,7,".",3,".",8,"\\",7,"|",".",6,7,".",".",".",".",".",".",".","."],[0,".",".",0,".",0,".",".",".","|",0,".",".",4,"\\",1,0,1,0,1,4]],[[".",".",".",".",".",".",".",".",".","|",".",".",".",".",".",".",".",".",".",".","."],[".",".",".",".",".",".",".",".",".","|",".",".",".",".",".",".",".",".",".",".","."],[".",".",".",".",".",".",".",".",".","|",".",".",".",".",".",".",".",".",".",".","."],[".",".",".",".",".",".",".",".",".","|",".",".",".",".",".",".",".",".",".",".",8],[".",5,6,"b",7,".",4,".",".","|",".",5,6,"b",7,".",".",".",".",".","."],[5,".",".",".",".",4,".",5,6,"|",5,".",".",".",".",4,4,3,6,5,"."],[3,".",".",".",".",2,".",".",".","|",3,".",".",".",".",2,".",".",".",".","."]],[[".",".",".",".",".",".",".",".",".","|",".",".",".",".",".",".",".",".",".",".","."],[".",".",".",".",".",".",".",".",".","|",".",".",".",".",".",".",".",".",".",".","."],[".",".",".",".",".",".",".",".",".","|",".",".",".",".",".",".",".",".",".",".","."],[".",".",".",".",".",".",".",".",".","|",".",".",".",".",".",".",".",".",".",".",12],[".",5,6,"b",7,".",7,".",".","|",".",5,6,"b",7,".",".",".",".",".","."],[5,".",".",".",".",4,".",8,9,"|",5,".",".",".",".",4,8,7,10,9,"."],[3,".",".",".",".",2,".",".",".","|",3,".",".",".",".",2,".",".",".",".","."]],[[".",".",".",".",".",".",".",".",".",".",".",".",".",".",".",".","|",".",".",".",".",".",".",".",".",".",".",".",".",".",".",".",".",".",".","."],[".",".",".",".",".",".",".",".",".",".",".",".",".",".",".",".","|",".",".",".",".",".",".",".",".",".",".",".",".",".",".",".",".",".",".","."],[".",".",".",".",".",".",".",".",".",".",".",".",".",".",".",".","|",".",".",".",".",".",".",".",".",".",".",".",".",".",".",".",".",".",".",0],[".",".",".",".",".",".",".",".",".",".",".",".",".",".",".",0,"|",".",".",".",".",".",".",".",".",".",".",".",".",".",".",0,".",".",".","."],[".",".",".",".",".",".",".",".",".",".",".",".",4,".",1,".","|",".",".",".",".",".",".",".",".",".",".",".",".",".",9,".",9,".",9,"."],[".",7,8,7,"h",8,"p",7,"h",8,"p",7,6,3,".",".","|",".",7,8,7,"h",8,"p",7,"h",8,"p",7,6,".",".",".",6,".","."],[0,".",".",".",".",".",".",".",".",".",".",".",".",".",".",".","|",0,".",".",".",".",".",".",".",".",".",".",".",".",".",".",".",".",".","."]],[[".",".",".",".",".",".",".",".",".","."],[".",".",".",".",".",".",".",".",".","."],[".",".",".",".",".",".",".",".",".","."],[".",".",".",".",".",".",".",".",".","."],[".",7,8,"b",9,".",7,8,7,6],[0,".",".",".",".",0,".",".",".","."],[".",".",".",".",".",".",".",".",".","."]],[[".",".",".",".",".",".",".","."],[".",".",".",".",".",".",".","."],[".",".",".",".",".",".",".","."],[".",".",".",".",".",".",".","."],[2,".",".",2,".",".",".","."],[0,3,4,0,3,4,3,2],[".",5,6,".",5,6,5,4]],[[".",".",".",".",".","|",".",".",".",".",".",".",".",".",".",".",".",".","."],[".",".",".",".",".","|",".",".",".",".",".",".",".",".",".",".",".",".","."],[".",".",".",".",".","|",".",".",".",".",".",".",".",".",".",1,"p",0,"."],[".",".",".",".",0,"|",".",".",".",".",0,".",".",0,".",".",".",".",2],[".",".",6,".",".","|",".",".",6,".",".",".",2,".",2,".",".",".","."],[".",7,".",7,".","|",".",7,".",7,".",4,".",".",".",".",".",".","."],[0,".",".",".",".","|",0,".",".",".",".",".",".",".",".",".",".",".","."]],[[".",".",".",".",".","|",".",".",".",".",".",".","."],[".",".",".",".",".","|",".",".",".",".",".",".","."],[".",".",".",".",".","|",".",".",".",".",".",".","."],[".",".",".",".",".","|",".",".",".",".",".",".","."],[".",".",".",3,2,"|",".",".",".",".",".",".","."],[2,".",".",".",".","|",2,".",".",".",".",".","."],[0,4,1,".",".","|",0,1,0,1,4,3,6]],[["_",".",".",".",".",".","|",".",".",".",".",".",".","|",".",".",".",".",".","|",".",".",".",".","."],["_",0,0,0,0,0,"|",0,0,0,0,0,0,"|",0,0,0,0,0,"|",0,0,0,0,0],["_",5,4,5,4,3,"|",5,4,5,4,0,3,"|",5,4,5,4,3,"|",5,4,5,3,10],["_",".",".",".",".",".","|",".",".",".",".",".",".","|",".",".",".",".",".","|",".",".",".",".","."],["_",".",".",".",".",".","|",".",".",".",".",".",".","|",".",".",".",".",".","|",".",".",".",".","."],["_",".",".",".",".",".","|",".",".",".",".",".",".","|",".",".",".",".",".","|",".",".",".",".","."],["_",".",".",".",".",".","|",".",".",".",".",".",".","|",".",".",".",".",".","|",".",".",".",".","."]],[[".",".",".",".","|",".",".",".",".","|",".",".",".",".","|",".",".",".","."],[".",".",".",".","|",".",".",".",".","|",".",".",".",".","|",".",".",".","."],[".",".",".",".","|",".",".",".",".","|",".",".",".",".","|",".",".",".","."],[".",".",".",".","|",".",".",".",".","|",".",".",".",".","|",".",".",".","."],[".",".",".",".","|",".",".",".",".","|",".",".",".",".","|",".",".",".","."],[2,5,3,2,"|",2,5,3,2,"|",2,5,3,2,"|",2,5,3,6],[0,3,1,0,"|",0,3,1,0,"|",0,3,1,0,"|",0,3,1,4]],[[],[],[],[],[],[],[]]],"numberofstrings":7,"notes":["D","A","F","C","G","D","A"],"capo":0,"stringnotes":["D3","A2","F2","C1","G1","D1","A0"],"comments":["Riff 1:","Riff 2: gitarr 1","Riff 2: gitarr 2","Riff 3:","Riff 4: gitarr 1","Riff 4: gitarr 2","Riff 5:","Riff 6:gitarr 1","Riff 6: gitarr 2","Riff 7: gitarr 1","Riff 7: gitarr 2 (samma som gitarr 2 Riff 6"],"timing":[["W","W","W","W","W","W","W","W","W",null,"W","W","W","W",null,"W","W","W","W","W","W"],["W","W","W",null,"W","W","W","W","W",null,"W","W","W",null,"W","W","W","W","W","W","W"],["W","W","W",null,"W","W","W","W","W",null,"W","W","W",null,"W","W","W","W","W","W","W"],["W","W","W","W",null,"W",null,"W",null,"W",null,"W","W","W","W","W",null,"W","W","W","W",null,"W",null,"W",null,"W",null,"W","W","W","W","W","W","W","W"],["W","W","W",null,"W","W","W","W","W","W"],["W","W","W","W","W","W","W","W"],["W","W","W","W","W",null,"W","W","W","W","W","W","W","W","W","W",null,"W","W"],["W","W","W","W","W",null,"W","W","W","W","W","W","W"],["W","W","W","W","W","W",null,"W","W","W","W","W","W",null,"W","W","W","W","W",null,"W","W","W","W","W"],["W","W","W","W",null,"W","W","W","W",null,"W","W","W","W",null,"W","W","W","W"],[]],"timingvisible":false,"tabcounter":0,"stave":10,"totalstaves":11,"instrument":"7guitar","selectedtuning":"7guitar","version":"13"}

Member for

1 month
Submitted by Dasah on Sun, 2020-09-20 07:14