2

Chords

01234567891011121314151617181920212223
E
B
G
D
A
E
B
0 1 2 3 4 5 6 7 8 9 10 11 12 13 14 15 16 17 18 19 20 21 22 23
(/) Slide Up  (\) Slide Down  (h) Hammer On  (p) Pull Off  (b) Bend (r) Release (v) Vibrato

Riff 1:

D|--------------------------
A|--------------------------
F|--------------------------
C|--------------------------
G|--------------------------
D|--------------------------
A|--2--------------1-----0--

Riff 2 (Figur 1): gitarr 1

D|-----------------------------------------|-----------------------------------------------|-----------------------------------------|-----------------------------------------------------
A|-----------------------------------------|-----------------------------------------------|-----------------------------------------|-----------------------------------------------------
F|-----------------------------------------|-----------------------------------------------|-----------------------------------------|-----------------------------------------------------
C|-----------------------------------------|-----------------------------------------6-----|-----------------------------------------|--------------------------------------6--------------
G|-----4--------------5-----5--------------|-----4--------------5-----5--------------------|-----4--------------5-----5--------------|-----4--------------5-----5--------------5-----------
D|-----------------------------------------|--------------------------------------3--------|-----------------------------------------|-----------------------------------------------------
A|--------2--------------2-----2-----------|--------2--------------2-----2-----------------|--------2--------------2-----2-----------|--------2--------------2-----2-----------------------

Riff 2 (figur 1): gitarr 2

D|-----------------------------------------|-----------------------------------------------|-----------------------------------------|-----------------------------------------------------
A|-----------------------------------------|-----------------------------------------------|-----------------------------------------|-----------------------------------------------------
F|-----------------------------------------|-----------------------------------------------|-----------------------------------------|-----------------------------------------------------
C|-----------------------------------------|-----------------------------------------9-----|-----------------------------------------|--------------------------------------9--------------
G|-----4--------------5-----5--------------|-----4--------------5-----5--------------------|-----4--------------5-----5--------------|-----4--------------5-----5--------------8-----------
D|-----------------------------------------|--------------------------------------6--------|-----------------------------------------|-----------------------------------------------------
A|--------2--------------2-----2-----------|--------2--------------2-----2-----------------|--------2--------------2-----2-----------|--------2--------------2-----2-----------------------

Riff 2 (figur 2 & 4): gitarr 1

D|--------------------------------------------|--------------------------------------------
A|--------------------------------------------|--------------------------------------------
F|--------------------------------------------|--------------------------------------------
C|--------------------------------------------|-----------------------------------6--------
G|-----------------------------------3--2-----|--------------------------------------5-----
D|--------------------------------------------|--------------------------------------------
A|-----1-----------0--1--2--1-----------------|-----1-----------0--1--2--1-----------------

Riff 2 (figur 2 & 4): gitarr 2

D|--------------------------------------------|--------------------------------------------
A|--------------------------------------------|--------------------------------------------
F|--------------------------------------------|--------------------------------------------
C|-----------------------------------5--4-----|-----------------------------------9--------
G|--------------------------------------------|--------------------------------------8-----
D|--------------------------------------------|--------------------------------------------
A|-----1-----------0--1--2--1-----------------|-----1-----------0--1--2--1-----------------

Riff 2 (figur 3) x2: gitarr 1

D|--------------------------------------------|-----------------------------------------------
A|--------------------------------------------|-----------------------------------------------
F|--------------------------------------------|-----------------------------------------------
C|-----------------------------------------6--|--------------------------------------6--------
G|-----4--------------5-----5-----------------|-----4--------------5-----5--------------5-----
D|--------------------------------------3-----|-----------------------------------------------
A|--------2--------------2-----2--------------|--------2--------------2-----2-----------------

Riff 2 (figur 3) x2: gitarr 2

D|--------------------------------------------|-----------------------------------------------
A|--------------------------------------------|-----------------------------------------------
F|--------------------------------------------|-----------------------------------------------
C|-----------------------------------------9--|--------------------------------------9--------
G|-----4--------------5-----5-----------------|-----4--------------5-----5--------------8-----
D|--------------------------------------6-----|-----------------------------------------------
A|--------2--------------2-----2--------------|--------2--------------2-----2-----------------

Riff 3: gitarr 1

D|-----------------------------------------------------|-----------------------------------------------------
A|-----------------------------------------------------|-----------------------------------------------------
F|-----------------------------------------------------|-----------------------------------------------------
C|--------------------------------------------5--------|-----------------------------------------------------
G|-----------------------------------4-----------------|-----------------------------------------------------
D|-----------------------------------------------------|--------------------------------------3--4--5--4--3--
A|-----6-----------3-----0--2--------------2-----------|-----6-----------3-----0--2--------------------------

Riff 3: gitarr 2

D|-----------------------------------------------------|-----------------------------------------------------
A|-----------------------------------------------------|-----------------------------------------------------
F|-----------------------------------------------------|-----------------------------------------------------
C|-----------------------------------------------------|-----------------------------------------------------
G|-----------------------------------7--------6--------|-----------------------------------------------------
D|-----------------------------------------------------|--------------------------------------3--4--5--4--3--
A|-----6-----------3-----0--2--------------2-----------|-----6-----------3-----0--2--------------------------

Riff 4: gitarr 1

D|--------------------------------------------|-----------------------------------------------------|----------------------------
A|--------------------------------------------|-----------------------------------------------------|----------------------------
F|--------------------------------------------|-----------------------------------------------------|----------------------------
C|--------------------------------------------|--------------------------------------6-----5--------|-----5b---------------------
G|-----------------------------------3--2-----|-----------------------------------------------4-----|----------------------------
D|--------------------------------------------|--------------------------------3--------------------|----------------------------
A|-----1-----------0--1--2--1-----------------|-----1-----------0--1--3--2--------------------------|----------------------------

Riff 4: gitarr 2

D|--------------------------------------------|-----------------------------------------------------|----------------------------
A|--------------------------------------------|-----------------------------------------------------|----------------------------
F|--------------------------------------------|-----------------------------------------------------|----------------------------
C|-----------------------------------5--4-----|--------------------------------------6-----5--------|----------------------------
G|--------------------------------------------|-----------------------------------------------4-----|-----6b---------------------
D|--------------------------------------------|--------------------------------3--------------------|----------------------------
A|-----1-----------0--1--2--1-----------------|-----1-----------0--1--3--2--------------------------|----------------------------

Riff 5: gitarr 1

D|--------------------------------------------------------------
A|--------------------------------------------------------------
F|--------------------------------------------------------------
C|--------------------------------------------------------------
G|--------------------------------------------------------------
D|-----4--------2--3-----2-----3-----------------3--------------
A|-----2--------0--1-----0-----1-----4-----5-----1-----4--3-----

Riff 5: gitarr 2

D|--------------------------------------------------------------
A|--------------------------------------------------------------
F|--------------------------------------------------------------
C|--------------------------------------------------------------
G|--------------------------------------------------------------
D|-----4--------2--3-----2-----3-----2-----3-----------7--6-----
A|-----2--------0--1-----0-----1-----------------4--------------

Riff 5: lead

D|--------------------------------------------------------
A|-----------------------------8-----------7-----8--------
F|-----6-----------5-----4--5--------5--------------4-----
C|--------------------------------------------------------
G|--------------------------------------------------------
D|--------------------------------------------------------
A|--------------------------------------------------------

Riff 6: gitarr 1

D|------------------------------------------|--------------------------------
A|------------------------------------------|--------------------------------
F|------------------------------------------|--------------------------------
C|-----------------8------------------------|--------------------------------
G|--------------------10--------------------|--------------------------------
D|-----2-----7--6------------3--2--3--6-----|--2-----7--6--7--8-----5-----3--
A|-----0---------------------1--0--1--4-----|--0--------------------3-----1--

Riff 6: gitarr 2

D|--------------------------------------------|---------------------------------
A|--------------------------------------------|---------------------------------
F|--------------------------------------------|---------------------------------
C|------------------11------------------------|---------------------------------
G|----------------------13--------------------|--------9--8--9--10--------------
D|-----2-----10--9-------------3--2--3--6-----|--2---------------------5-----3--
A|-----0-----------------------1--0--1--4-----|--0---------------------3-----1--

Riff 7:

D|----------------------------------------------
A|----------------------------------------------
F|----------------------------------------------
C|-----------4--7-----8-----6-------9-----10----
G|-----------3--6-----7-----5-------8-----9-----
D|-----2-----2--5-----6-----4-------7-----8-----
A|-----0-----1--4-----5-----3-------6-----7-----

Riff 8:

D|-------------------------------|-------------------------------|-------------------------------|-------------------------------
A|-------------------------------|-------------------------------|-------------------------------|-------------------------------
F|-------------------------------|-------------------------------|-------------------------------|-------------------------------
C|-------------------------------|-------------------------------|-------------------------------|-------------------------------
G|--------------------4b---------|--------------------4b---------|--------------------4b---------|-----3-------------------------
D|-----1-------------------------|-----1-------------------------|-----1-------------------------|-----------5-----4--6b---------
A|-----------3-----2-------------|-----------3-----2-------------|-----------3-----2-------------|-------------------------------

							http://www.guitartabcreator.com
Instruments
{"strings":[[[".",".",".",".",".",".",".","."],[".",".",".",".",".",".",".","."],[".",".",".",".",".",".",".","."],[".",".",".",".",".",".",".","."],[".",".",".",".",".",".",".","."],[".",".",".",".",".",".",".","."],[2,".",".",".",".",1,".",0]],[[".",".",".",".",".",".",".",".",".",".",".",".",".","|",".",".",".",".",".",".",".",".",".",".",".",".",".",".",".","|",".",".",".",".",".",".",".",".",".",".",".",".",".","|",".",".",".",".",".",".",".",".",".",".",".",".",".",".",".",".","."],[".",".",".",".",".",".",".",".",".",".",".",".",".","|",".",".",".",".",".",".",".",".",".",".",".",".",".",".",".","|",".",".",".",".",".",".",".",".",".",".",".",".",".","|",".",".",".",".",".",".",".",".",".",".",".",".",".",".",".",".","."],[".",".",".",".",".",".",".",".",".",".",".",".",".","|",".",".",".",".",".",".",".",".",".",".",".",".",".",".",".","|",".",".",".",".",".",".",".",".",".",".",".",".",".","|",".",".",".",".",".",".",".",".",".",".",".",".",".",".",".",".","."],[".",".",".",".",".",".",".",".",".",".",".",".",".","|",".",".",".",".",".",".",".",".",".",".",".",".",".",6,".","|",".",".",".",".",".",".",".",".",".",".",".",".",".","|",".",".",".",".",".",".",".",".",".",".",".",".",6,".",".",".","."],[".",4,".",".",".",".",5,".",5,".",".",".",".","|",".",4,".",".",".",".",5,".",5,".",".",".",".",".",".","|",".",4,".",".",".",".",5,".",5,".",".",".",".","|",".",4,".",".",".",".",5,".",5,".",".",".",".",5,".",".","."],[".",".",".",".",".",".",".",".",".",".",".",".",".","|",".",".",".",".",".",".",".",".",".",".",".",".",3,".",".","|",".",".",".",".",".",".",".",".",".",".",".",".",".","|",".",".",".",".",".",".",".",".",".",".",".",".",".",".",".",".","."],[".",".",2,".",".",".",".",2,".",2,".",".",".","|",".",".",2,".",".",".",".",2,".",2,".",".",".",".",".","|",".",".",2,".",".",".",".",2,".",2,".",".",".","|",".",".",2,".",".",".",".",2,".",2,".",".",".",".",".",".","."]],[[".",".",".",".",".",".",".",".",".",".",".",".",".","|",".",".",".",".",".",".",".",".",".",".",".",".",".",".",".","|",".",".",".",".",".",".",".",".",".",".",".",".",".","|",".",".",".",".",".",".",".",".",".",".",".",".",".",".",".",".","."],[".",".",".",".",".",".",".",".",".",".",".",".",".","|",".",".",".",".",".",".",".",".",".",".",".",".",".",".",".","|",".",".",".",".",".",".",".",".",".",".",".",".",".","|",".",".",".",".",".",".",".",".",".",".",".",".",".",".",".",".","."],[".",".",".",".",".",".",".",".",".",".",".",".",".","|",".",".",".",".",".",".",".",".",".",".",".",".",".",".",".","|",".",".",".",".",".",".",".",".",".",".",".",".",".","|",".",".",".",".",".",".",".",".",".",".",".",".",".",".",".",".","."],[".",".",".",".",".",".",".",".",".",".",".",".",".","|",".",".",".",".",".",".",".",".",".",".",".",".",".",9,".","|",".",".",".",".",".",".",".",".",".",".",".",".",".","|",".",".",".",".",".",".",".",".",".",".",".",".",9,".",".",".","."],[".",4,".",".",".",".",5,".",5,".",".",".",".","|",".",4,".",".",".",".",5,".",5,".",".",".",".",".",".","|",".",4,".",".",".",".",5,".",5,".",".",".",".","|",".",4,".",".",".",".",5,".",5,".",".",".",".",8,".",".","."],[".",".",".",".",".",".",".",".",".",".",".",".",".","|",".",".",".",".",".",".",".",".",".",".",".",".",6,".",".","|",".",".",".",".",".",".",".",".",".",".",".",".",".","|",".",".",".",".",".",".",".",".",".",".",".",".",".",".",".",".","."],[".",".",2,".",".",".",".",2,".",2,".",".",".","|",".",".",2,".",".",".",".",2,".",2,".",".",".",".",".","|",".",".",2,".",".",".",".",2,".",2,".",".",".","|",".",".",2,".",".",".",".",2,".",2,".",".",".",".",".",".","."]],[[".",".",".",".",".",".",".",".",".",".",".",".",".",".","|",".",".",".",".",".",".",".",".",".",".",".",".",".","."],[".",".",".",".",".",".",".",".",".",".",".",".",".",".","|",".",".",".",".",".",".",".",".",".",".",".",".",".","."],[".",".",".",".",".",".",".",".",".",".",".",".",".",".","|",".",".",".",".",".",".",".",".",".",".",".",".",".","."],[".",".",".",".",".",".",".",".",".",".",".",".",".",".","|",".",".",".",".",".",".",".",".",".",".",".",6,".","."],[".",".",".",".",".",".",".",".",".",".",".",3,2,".","|",".",".",".",".",".",".",".",".",".",".",".",".",5,"."],[".",".",".",".",".",".",".",".",".",".",".",".",".",".","|",".",".",".",".",".",".",".",".",".",".",".",".",".","."],[".",1,".",".",".",0,1,2,1,".",".",".",".",".","|",".",1,".",".",".",0,1,2,1,".",".",".",".","."]],[[".",".",".",".",".",".",".",".",".",".",".",".",".",".","|",".",".",".",".",".",".",".",".",".",".",".",".",".","."],[".",".",".",".",".",".",".",".",".",".",".",".",".",".","|",".",".",".",".",".",".",".",".",".",".",".",".",".","."],[".",".",".",".",".",".",".",".",".",".",".",".",".",".","|",".",".",".",".",".",".",".",".",".",".",".",".",".","."],[".",".",".",".",".",".",".",".",".",".",".",5,4,".","|",".",".",".",".",".",".",".",".",".",".",".",9,".","."],[".",".",".",".",".",".",".",".",".",".",".",".",".",".","|",".",".",".",".",".",".",".",".",".",".",".",".",8,"."],[".",".",".",".",".",".",".",".",".",".",".",".",".",".","|",".",".",".",".",".",".",".",".",".",".",".",".",".","."],[".",1,".",".",".",0,1,2,1,".",".",".",".",".","|",".",1,".",".",".",0,1,2,1,".",".",".",".","."]],[[".",".",".",".",".",".",".",".",".",".",".",".",".",".","|",".",".",".",".",".",".",".",".",".",".",".",".",".",".","."],[".",".",".",".",".",".",".",".",".",".",".",".",".",".","|",".",".",".",".",".",".",".",".",".",".",".",".",".",".","."],[".",".",".",".",".",".",".",".",".",".",".",".",".",".","|",".",".",".",".",".",".",".",".",".",".",".",".",".",".","."],[".",".",".",".",".",".",".",".",".",".",".",".",".",6,"|",".",".",".",".",".",".",".",".",".",".",".",".",6,".","."],[".",4,".",".",".",".",5,".",5,".",".",".",".",".","|",".",4,".",".",".",".",5,".",5,".",".",".",".",5,"."],[".",".",".",".",".",".",".",".",".",".",".",".",3,".","|",".",".",".",".",".",".",".",".",".",".",".",".",".",".","."],[".",".",2,".",".",".",".",2,".",2,".",".",".",".","|",".",".",2,".",".",".",".",2,".",2,".",".",".",".","."]],[[".",".",".",".",".",".",".",".",".",".",".",".",".",".","|",".",".",".",".",".",".",".",".",".",".",".",".",".",".","."],[".",".",".",".",".",".",".",".",".",".",".",".",".",".","|",".",".",".",".",".",".",".",".",".",".",".",".",".",".","."],[".",".",".",".",".",".",".",".",".",".",".",".",".",".","|",".",".",".",".",".",".",".",".",".",".",".",".",".",".","."],[".",".",".",".",".",".",".",".",".",".",".",".",".",9,"|",".",".",".",".",".",".",".",".",".",".",".",".",9,".","."],[".",4,".",".",".",".",5,".",5,".",".",".",".",".","|",".",4,".",".",".",".",5,".",5,".",".",".",".",8,"."],[".",".",".",".",".",".",".",".",".",".",".",".",6,".","|",".",".",".",".",".",".",".",".",".",".",".",".",".",".","."],[".",".",2,".",".",".",".",2,".",2,".",".",".",".","|",".",".",2,".",".",".",".",2,".",2,".",".",".",".","."]],[[".",".",".",".",".",".",".",".",".",".",".",".",".",".",".",".",".","|",".",".",".",".",".",".",".",".",".",".",".",".",".",".",".",".","."],[".",".",".",".",".",".",".",".",".",".",".",".",".",".",".",".",".","|",".",".",".",".",".",".",".",".",".",".",".",".",".",".",".",".","."],[".",".",".",".",".",".",".",".",".",".",".",".",".",".",".",".",".","|",".",".",".",".",".",".",".",".",".",".",".",".",".",".",".",".","."],[".",".",".",".",".",".",".",".",".",".",".",".",".",".",5,".",".","|",".",".",".",".",".",".",".",".",".",".",".",".",".",".",".",".","."],[".",".",".",".",".",".",".",".",".",".",".",4,".",".",".",".",".","|",".",".",".",".",".",".",".",".",".",".",".",".",".",".",".",".","."],[".",".",".",".",".",".",".",".",".",".",".",".",".",".",".",".",".","|",".",".",".",".",".",".",".",".",".",".",".",".",3,4,5,4,3],[".",6,".",".",".",3,".",0,2,".",".",".",".",2,".",".",".","|",".",6,".",".",".",3,".",0,2,".",".",".",".",".",".",".","."]],[[".",".",".",".",".",".",".",".",".",".",".",".",".",".",".",".",".","|",".",".",".",".",".",".",".",".",".",".",".",".",".",".",".",".","."],[".",".",".",".",".",".",".",".",".",".",".",".",".",".",".",".",".","|",".",".",".",".",".",".",".",".",".",".",".",".",".",".",".",".","."],[".",".",".",".",".",".",".",".",".",".",".",".",".",".",".",".",".","|",".",".",".",".",".",".",".",".",".",".",".",".",".",".",".",".","."],[".",".",".",".",".",".",".",".",".",".",".",".",".",".",".",".",".","|",".",".",".",".",".",".",".",".",".",".",".",".",".",".",".",".","."],[".",".",".",".",".",".",".",".",".",".",".",7,".",".",6,".",".","|",".",".",".",".",".",".",".",".",".",".",".",".",".",".",".",".","."],[".",".",".",".",".",".",".",".",".",".",".",".",".",".",".",".",".","|",".",".",".",".",".",".",".",".",".",".",".",".",3,4,5,4,3],[".",6,".",".",".",3,".",0,2,".",".",".",".",2,".",".",".","|",".",6,".",".",".",3,".",0,2,".",".",".",".",".",".",".","."]],[[".",".",".",".",".",".",".",".",".",".",".",".",".",".","|",".",".",".",".",".",".",".",".",".",".",".",".",".",".",".",".",".","|",".",".",".",".",".",".",".",".",".","."],[".",".",".",".",".",".",".",".",".",".",".",".",".",".","|",".",".",".",".",".",".",".",".",".",".",".",".",".",".",".",".",".","|",".",".",".",".",".",".",".",".",".","."],[".",".",".",".",".",".",".",".",".",".",".",".",".",".","|",".",".",".",".",".",".",".",".",".",".",".",".",".",".",".",".",".","|",".",".",".",".",".",".",".",".",".","."],[".",".",".",".",".",".",".",".",".",".",".",".",".",".","|",".",".",".",".",".",".",".",".",".",".",".",".",6,".",5,".",".","|",".",5,"b",".",".",".",".",".",".","."],[".",".",".",".",".",".",".",".",".",".",".",3,2,".","|",".",".",".",".",".",".",".",".",".",".",".",".",".",".",".",4,".","|",".",".",".",".",".",".",".",".",".","."],[".",".",".",".",".",".",".",".",".",".",".",".",".",".","|",".",".",".",".",".",".",".",".",".",".",3,".",".",".",".",".",".","|",".",".",".",".",".",".",".",".",".","."],[".",1,".",".",".",0,1,2,1,".",".",".",".",".","|",".",1,".",".",".",0,1,3,2,".",".",".",".",".",".",".",".","|",".",".",".",".",".",".",".",".",".","."]],[[".",".",".",".",".",".",".",".",".",".",".",".",".",".","|",".",".",".",".",".",".",".",".",".",".",".",".",".",".",".",".",".","|",".",".",".",".",".",".",".",".",".","."],[".",".",".",".",".",".",".",".",".",".",".",".",".",".","|",".",".",".",".",".",".",".",".",".",".",".",".",".",".",".",".",".","|",".",".",".",".",".",".",".",".",".","."],[".",".",".",".",".",".",".",".",".",".",".",".",".",".","|",".",".",".",".",".",".",".",".",".",".",".",".",".",".",".",".",".","|",".",".",".",".",".",".",".",".",".","."],[".",".",".",".",".",".",".",".",".",".",".",5,4,".","|",".",".",".",".",".",".",".",".",".",".",".",".",6,".",5,".",".","|",".",".",".",".",".",".",".",".",".","."],[".",".",".",".",".",".",".",".",".",".",".",".",".",".","|",".",".",".",".",".",".",".",".",".",".",".",".",".",".",".",4,".","|",".",6,"b",".",".",".",".",".",".","."],[".",".",".",".",".",".",".",".",".",".",".",".",".",".","|",".",".",".",".",".",".",".",".",".",".",3,".",".",".",".",".",".","|",".",".",".",".",".",".",".",".",".","."],[".",1,".",".",".",0,1,2,1,".",".",".",".",".","|",".",1,".",".",".",0,1,3,2,".",".",".",".",".",".",".",".","|",".",".",".",".",".",".",".",".",".","."]],[[".",".",".",".",".",".",".",".",".",".",".",".",".",".",".",".",".",".",".","."],[".",".",".",".",".",".",".",".",".",".",".",".",".",".",".",".",".",".",".","."],[".",".",".",".",".",".",".",".",".",".",".",".",".",".",".",".",".",".",".","."],[".",".",".",".",".",".",".",".",".",".",".",".",".",".",".",".",".",".",".","."],[".",".",".",".",".",".",".",".",".",".",".",".",".",".",".",".",".",".",".","."],[".",4,".",".",2,3,".",2,".",3,".",".",".",".",".",3,".",".",".","."],[".",2,".",".",0,1,".",0,".",1,".",4,".",5,".",1,".",4,3,"."]],[[".",".",".",".",".",".",".",".",".",".",".",".",".",".",".",".",".",".",".","."],[".",".",".",".",".",".",".",".",".",".",".",".",".",".",".",".",".",".",".","."],[".",".",".",".",".",".",".",".",".",".",".",".",".",".",".",".",".",".",".","."],[".",".",".",".",".",".",".",".",".",".",".",".",".",".",".",".",".",".",".","."],[".",".",".",".",".",".",".",".",".",".",".",".",".",".",".",".",".",".",".","."],[".",4,".",".",2,3,".",2,".",3,".",2,".",3,".",".",".",7,6,"."],[".",2,".",".",0,1,".",0,".",1,".",".",".",".",".",4,".",".",".","."]],[[".",".",".",".",".",".",".",".",".",".",".",".",".",".",".",".",".","."],[".",".",".",".",".",".",".",".",".",8,".",".",".",7,".",8,".","."],[".",6,".",".",".",5,".",4,5,".",".",5,".",".",".",".",4,"."],[".",".",".",".",".",".",".",".",".",".",".",".",".",".",".",".",".","."],[".",".",".",".",".",".",".",".",".",".",".",".",".",".",".",".",".","."],[".",".",".",".",".",".",".",".",".",".",".",".",".",".",".",".",".","."],[".",".",".",".",".",".",".",".",".",".",".",".",".",".",".",".",".","."]],[[".",".",".",".",".",".",".",".",".",".",".",".",".","|",".",".",".",".",".",".",".",".",".","."],[".",".",".",".",".",".",".",".",".",".",".",".",".","|",".",".",".",".",".",".",".",".",".","."],[".",".",".",".",".",".",".",".",".",".",".",".",".","|",".",".",".",".",".",".",".",".",".","."],[".",".",".",".",".",8,".",".",".",".",".",".",".","|",".",".",".",".",".",".",".",".",".","."],[".",".",".",".",".",".",10,".",".",".",".",".",".","|",".",".",".",".",".",".",".",".",".","."],[".",2,".",7,6,".",".",".",3,2,3,6,".","|",2,".",7,6,7,8,".",5,".",3],[".",0,".",".",".",".",".",".",1,0,1,4,".","|",0,".",".",".",".",".",".",3,".",1]],[[".",".",".",".",".",".",".",".",".",".",".",".",".","|",".",".",".",".",".",".",".",".",".","."],[".",".",".",".",".",".",".",".",".",".",".",".",".","|",".",".",".",".",".",".",".",".",".","."],[".",".",".",".",".",".",".",".",".",".",".",".",".","|",".",".",".",".",".",".",".",".",".","."],[".",".",".",".",".",11,".",".",".",".",".",".",".","|",".",".",".",".",".",".",".",".",".","."],[".",".",".",".",".",".",13,".",".",".",".",".",".","|",".",".",9,8,9,10,".",".",".","."],[".",2,".",10,9,".",".",".",3,2,3,6,".","|",2,".",".",".",".",".",".",5,".",3],[".",0,".",".",".",".",".",".",1,0,1,4,".","|",0,".",".",".",".",".",".",3,".",1]],[[".",".",".",".",".",".",".",".",".",".",".",".",".",".",".",".","."],[".",".",".",".",".",".",".",".",".",".",".",".",".",".",".",".","."],[".",".",".",".",".",".",".",".",".",".",".",".",".",".",".",".","."],[".",".",".",4,7,".",8,".",6,"b",".",".",9,".",10,"b","."],[".",".",".",3,6,".",7,".",5,"b",".",".",8,".",9,"b","."],[".",2,".",2,5,".",6,".",4,"b",".",".",7,".",8,"b","."],[".",0,".",1,4,".",5,".",3,"b",".",".",6,".",7,"b","."]],[[".",".",".",".",".",".",".",".",".",".",".","|",".",".",".",".",".",".",".",".",".",".",".","|",".",".",".",".",".",".",".",".",".",".",".","|",".",".",".",".",".",".",".",".",".",".","."],[".",".",".",".",".",".",".",".",".",".",".","|",".",".",".",".",".",".",".",".",".",".",".","|",".",".",".",".",".",".",".",".",".",".",".","|",".",".",".",".",".",".",".",".",".",".","."],[".",".",".",".",".",".",".",".",".",".",".","|",".",".",".",".",".",".",".",".",".",".",".","|",".",".",".",".",".",".",".",".",".",".",".","|",".",".",".",".",".",".",".",".",".",".","."],[".",".",".",".",".",".",".",".",".",".",".","|",".",".",".",".",".",".",".",".",".",".",".","|",".",".",".",".",".",".",".",".",".",".",".","|",".",".",".",".",".",".",".",".",".",".","."],[".",".",".",".",".",".",4,"b",".",".",".","|",".",".",".",".",".",".",4,"b",".",".",".","|",".",".",".",".",".",".",4,"b",".",".",".","|",".",3,".",".",".",".",".",".",".",".","."],[".",1,".",".",".",".",".",".",".",".",".","|",".",1,".",".",".",".",".",".",".",".",".","|",".",1,".",".",".",".",".",".",".",".",".","|",".",".",".",5,".",4,6,"b",".",".","."],[".",".",".",3,".",2,".",".",".",".",".","|",".",".",".",3,".",2,".",".",".",".",".","|",".",".",".",3,".",2,".",".",".",".",".","|",".",".",".",".",".",".",".",".",".",".","."]]],"numberofstrings":7,"notes":["D","A","F","C","G","D","A"],"capo":0,"stringnotes":["D3","A2","F2","C1","G1","D1","A0"],"comments":["Riff 1:","Riff 2 (Figur 1): gitarr 1","Riff 2 (figur 1): gitarr 2","Riff 2 (figur 2 & 4): gitarr 1","Riff 2 (figur 2 & 4): gitarr 2","Riff 2 (figur 3) x2: gitarr 1","Riff 2 (figur 3) x2: gitarr 2","Riff 3: gitarr 1","Riff 3: gitarr 2","Riff 4: gitarr 1","Riff 4: gitarr 2","Riff 5: gitarr 1","Riff 5: gitarr 2","Riff 5: lead","Riff 6: gitarr 1","Riff 6: gitarr 2","Riff 7:","Riff 8:"],"timing":[[null,"W",null,null,null,null,"W",null,"W"],[null,null,"W","W",null,null,null,"W","W","W","W",null,null,null,null,null,null,null,null,null,null,null,null,null,null,null,null,null,"W",null,null,null,null,null,null,null,null,null,null,null,null,null,null,null,null,null,null,null,null,null,null,null,null,null,null,null,null,null,null,null,null,"W"],[null,null,null,null,null,null,null,null,null,null,null,null,null,null,null,null,null,null,null,null,null,null,null,null,null,null,null,null,null,null,null,null,null,null,null,null,null,null,null,null,null,null,null,null,null,null,null,null,null,null,null,null,null,null,null,null,null,null,null,null,"W"],[null,null,"W",null,null,null,"W","W","W","W",null,null,"W","W",null,null,null,null,null,null,null,null,null,null,null,null,null,null,null,"W"],[null,null,null,null,null,null,null,null,null,null,null,null,null,null,null,null,null,null,null,null,null,null,null,null,null,null,null,null,"W"],[null,null,null,null,null,null,null,null,null,null,null,null,null,null,"W",null,null,null,null,null,null,null,null,null,null,null,null,null,null,"W",null,null,null,null,null,null,null,null,null,null,null,null,null,"W"],[],[null,null,"W",null,null,null,"W",null,"W","W","W",null,"W",null,"W","W",null,null,null,null,null,null,null,null,null,null,null,null,null,null,null,"W","W","W","W","W"],[null,null,null,null,null,null,null,null,null,null,null,null,null,null,null,null,null,null,null,null,null,null,null,null,null,null,null,null,null,null,null,null,null,null,null,"W"],[null,null,null,null,null,null,null,null,null,null,null,null,null,null,null,null,null,null,null,null,null,null,null,null,null,null,null,null,"W",null,"W","W",null,null,null,"W"],[null,null,null,null,null,null,null,null,null,null,null,null,null,null,null,null,null,null,null,null,null,null,null,null,null,null,null,null,null,null,null,null,null,null,null,null,null,null,null,null,null,null,null,"W"],[null,null,"W",null,null,"W","W",null,"W",null,"W",null,"W",null,"W",null,"W",null,null,"W"],[null,null,null,null,null,null,null,null,null,null,null,null,null,null,null,null,null,null,null,"W"],[null,null,"W",null,null,null,"W",null,"W","W",null,"W","W",null,"W",null,"W","W"],[null,null,null,"W","W","W","W","W",null,"W","W","W","W",null,null,"W","W","W","W","W","W",null,"W",null,"W"],[null,null,null,null,null,null,null,null,null,null,null,null,null,null,null,null,null,null,null,null,null,null,null,null,"W"],[null,null,"W",null,"W","W",null,"W",null,"W","W",null,null,null,null,"W"],[null,null,"W",null,"W",null,"W","W",null,null,null,null,null,null,null,null,null,null,null,null,null,null,null,null,null,null,null,null,null,null,null,null,null,null,null,null,null,null,"W",null,"W",null,"W","W"]],"timingvisible":false,"tabcounter":47,"stave":17,"totalstaves":18,"instrument":"7guitar","selectedtuning":"7guitar","version":"13"}

Member for

1 month
Submitted by Dasah on Sun, 2020-09-20 09:54