Sound will begin in 5 seconds

you get me high

Chords
01234567891011121314151617181920212223
E
B
G
D
A
E
B
0 1 2 3 4 5 6 7 8 9 10 11 12 13 14 15 16 17 18 19 20 21 22 23
Song Science #1: How Pros Use 6 Chords to Write Hit Songs
(/) Slide Up  (\) Slide Down  (h) Hammer On  (p) Pull Off  (b) Bend (r) Release (v) Vibrato

Stave 1:

G|----------------------------------------------------------------------------
D|----------------------------------------------------------------------------
A|----------3p0-----5--5--3-----3----------------3p0-----5--5--3-----3--------
D|--0--3p0-------3-----------5-----5--3--0--3p0-------3-----------5-----5--3--

Stave 2:

G|-----------------------------------------------------------------------------------------------------------
D|-----------------------------------------------------------------------------------------------------------
A|------------------------------------------------------------------------------3p0-----5--5--3-----3--------
D|--5h7--7--5--7--5--7--5--7--5----5h7--7--5--7--5--7--5--7--5--7--5----0--3p0-------3-----------5-----5--3--

Stave 3:

G|-------------------------------------------------------------------------------------------------------------
D|-------------------------------------------------------------------------------------------------------------
A|----------3p0-----5--5--3-----3------------------------------------------------------------------------------
D|--0--3p0-------3-----------5-------5h7--7--5--7--5--7--5--7--5--7--5----5h7--7--5--7--5--7--5--7--5--7--5----

Stave 4:

G|-----------------------------------------------------------------------------------3-----------
D|--------------------------------------------------------------------------------3--------------
A|----------3p0-----5--5--3-----3----------------3p0-----5--5--3-----3----1--3p0----------3------
D|--0p3--0-------3-----------5-----5--3--0--3p0-------3-----------5------------------------------

Stave 5:

G|------------------------------------------------------------------------------------------------
D|----------------------------------------------------------------------------------8--8--10--10--
A|--------5-----3h5-----------5-----3h5-----------5-----3h5-----------5-----3h5-----8--8--7---7---
D|--0--0-----0-------0--0--0-----0-------0--0--0-----0-------0--0--0-----0-------0----------------

Stave 6:

G|--------------------------------------------------------------------------------------
D|--------------------------------------------------------------------------------------
A|--3h5--------3h5-----3h5--------------------3h5--------3h5-----3h5--------------------
D|-------0--0-------0-------0--0--5--3--0--0-------0--0-------0-------0--0--5--3--0--0--

Stave 7:

G|-----------
D|-----------
A|--0-----0--
D|-----2-----

http://www.guitartabcreator.com
Guitar Tab Creator is intended to store guitar tab created through the tool. It currently does not support in-line text editing. Any text you place in here will be lost. If you need to comment on your tab, please use the "Tab Notes" section located below.