Sound will begin in 5 seconds

midnight train

01234567891011121314151617181920212223
E
B
G
D
A
E
B
0 1 2 3 4 5 6 7 8 9 10 11 12 13 14 15 16 17 18 19 20 21 22 23
Song Science #1: How Pros Use 6 Chords to Write Hit Songs
(/) Slide Up  (\) Slide Down  (h) Hammer On  (p) Pull Off  (b) Bend (r) Release (v) Vibrato

Stave 1:

F|-----------------------------------------------------------------------------------------------------------------
C|-----------------------------------------------------------------------------------------------------------------
G|--------3--3h5-------------------------------3--3h5-------------------------------3--3h5-------------------------
C|--0--0----------3--0--5--0--5h6--5--3--0--0----------3--0--5--0--5h6--5--3--0--0----------3--0--5--0--5h6--5--3--

Stave 2:

F|---------------------------------------------------------------------------------------------------------------
C|----------------3--0--5--0--5h6--5--3--------------------------------------------------------------------------
G|--------3--3h5----------------------------------------------------------------5--5--3--------------------------
C|--0--0---------------------------------0--0-----0--0/10-----0--0-----0--0--0--------------0--0-----0--0/10-----

Stave 3:

F|--------------------------------------------------------------------------------------------------------------------------------------------
C|--------------5--------5-----5--3--------------------------------------------------------------------------------------5--------5-----5--3--
G|-----------------------------------------------------------------------------5--5--3--------------------------------------------------------
C|--3--3-----5--------5-----5-----------0--0-----0--0/10-----0--0-----0--0--0-----------0--0-----0--0/10-----3--3-----5--------5-----5--------

Stave 4:

F|----------------14------12------10h12----------12------10--10h12----------14------12------10----------14------12------10h12--
C|-----12-----12------12------12---------10--10------10-------------12--12------12------12------12--12------12------12---------
G|-----------------------------------------------------------------------------------------------------------------------------
C|--0------0-------------------------------------------------------------------------------------------------------------------

Stave 5:

F|----------12------10--10h12----------14------12------10----------14------12------10h12----------12------10--10h12------
C|--10--10------10-------------12--12------12------12------12--12------12------12---------10--10------10-------------10--
G|-----------------------------------------------------------------------------------------------------------------------
C|-----------------------------------------------------------------------------------------------------------------------

Stave 6:

F|------12------10--10h12---------10-------------10-----------------12------------------12-------------10----------------10------
C|--10------10----------------10------10-----10------10---------12------12----------12------12-----10------10--------10------10--
G|-------------------------8--------------8--------------8--10--------------10--10--------------8--------------8--8--------------
C|-------------------------------------------------------------------------------------------------------------------------------

Stave 7:

F|-------------------------------------------------------------------------------------------------------------------------------------------------
C|--------------------------------------------------------------------------------------------------------------------------------------8------10--
G|--------------------------------------------------------------------------------------------------3--0--------------------3--3-------------------
C|--5--5--5--5--5--5--5--5--5--5--5--5--3--3--3--3--3--------0--0--0--0--0--3--0--0--3--3--3--3--3--------3--5--5--0--5--5--------5--8-----10------

http://www.guitartabcreator.com
Guitar Tab Creator is intended to store guitar tab created through the tool. It currently does not support in-line text editing. Any text you place in here will be lost. If you need to comment on your tab, please use the "Tab Notes" section located below.