Sound will begin in 5 seconds

Finding My Way (Back to you)

01234567891011121314151617181920212223
E
B
G
D
A
E
B
0 1 2 3 4 5 6 7 8 9 10 11 12 13 14 15 16 17 18 19 20 21 22 23
Song Science #1: How Pros Use 6 Chords to Write Hit Songs
(/) Slide Up  (\) Slide Down  (h) Hammer On  (p) Pull Off  (b) Bend (r) Release (v) Vibrato

Stave 1:

G|--------9-----9-----------7-----------------9-----9-----------7-----
D|-----9-----9-----9-----7-----7-----------9-----9-----9-----7-----7--
A|--7-----------------5-----------------7-----------------5-----------
D|--------------------------------------------------------------------

Stave 2:

G|--------------5-----------------------5-----------------------4-----------------------4--------
D|--------5-----------------------5-----------------------5-----------------------5--------------
A|--3--3-----3-----3--3--3--3--3-----3-----3--3--3--2--2-----2-----2--2--2--2--2-----2-----2--2--
D|-----------------------------------------------------------------------------------------------

Stave 3:

G|--------------5-----------------------5-----------------------4-----------------------2-----------
D|--------5-----------------------5-----------------------5-----------------------2-----------------
A|--3--3-----3-----3--3--3--3--3-----3-----3--3--3--2--2-----2-----2--2--2--0--0-----0-----0--0--0--
D|--------------------------------------------------------------------------------------------------

Stave 4:

G|--------------2-----------------------2-----------------------2-----------
D|--------2-----------------------2-----------------------2-----------------
A|--0--0-----0-----0--0--0--0--0-----0-----0--0--0--0--0-----0-----0--0--0--
D|--------------------------------------------------------------------------

Stave 5:

G|---------------------------------------------------------------
D|---------------------------------------------------------------
A|---------------------------------------------------------------
D|--0h2--2--0--2-----2--2--2--2--2h5--5--2--0--0--0--0--0--0--0--

Stave 6:

G|---------------------------------------------------------------------------
D|---------------------------------------------------------------------------
A|---------------------------------------------------------------------------
D|--0h2--2--0--2-----2--2--2--2--2h5--5--2--0--0--0--0--0-----10--12--10--12\

Stave 7:

G|-------------------------------------------------------------------
D|-------------------------------------------------------------------
A|--------------3--3--3--3--5--3-------------------------------------
D|--3--3--3--3--------------------5--3--3h5--5--3--5--3--0--0--0/12--

Stave 8:

G|----------------------------------------------------------
D|----------------------------------------------------------
A|--8--8--8--8--3--3--3--3--5--3----------------------------
D|--------------------------------5--3--3h5--5--3--5--3--0--

http://www.guitartabcreator.com
Guitar Tab Creator is intended to store guitar tab created through the tool. It currently does not support in-line text editing. Any text you place in here will be lost. If you need to comment on your tab, please use the "Tab Notes" section located below.