Sound will begin in 5 seconds

Bad Taste of You

01234567891011121314151617181920212223
E
B
G
D
A
E
B
0 1 2 3 4 5 6 7 8 9 10 11 12 13 14 15 16 17 18 19 20 21 22 23
Song Science #1: How Pros Use 6 Chords to Write Hit Songs
(/) Slide Up  (\) Slide Down  (h) Hammer On  (p) Pull Off  (b) Bend (r) Release (v) Vibrato

Stave 1:

F|-----------------------------------------------------------------------------
C|-----------------------------------------------------------------------------
G|-----------------------------------------------------------------------------
C|-3-0-----3-0-----3-0-----3-0-----0-0-3-0-----0-0-3-0-----0-0-3-0---0-0-3-0---

Stave 2:

F|----------------------------------------------------------------------------------------
C|----------------------------------------------------------------------------------------
G|----------------------------------------------------------------------------------------
C|-0-0-3-0-3-0-6-5-3----3-0-0-5h6-5-0-3-0-0-0-0-3-0-0-5h6-5-0-3-0-0-0-0-3/5---5-5---5--5--

Stave 3:

F|-----------------------------------------------------------------------------------
C|-----------------------------------------------------------------------------------
G|-----------------------------------------------------------------------------------
C|-5h6-5-0-3-0-0-5h6-5-0-3-0-0-0-0-3/5---5-5---5--5--5h6-5-0-3-0-0-5h6-5-0-3-0-0-0-0-

Stave 4:

F|---------------------------------------------------------------------------------
C|---------------------------------------------------------------------------------
G|---------------------------------------------------------------------------------
C|-3/5---5-5---5--5--5h6-5-0-3-0-0-5h6-5-0-3-0-0-0-0-3/5---5-5---5--5--5h6-5-0-3-0-

Stave 5:

F|----------------------------------------------
C|----------------------------------------------
G|-----------------------1-1-1-------0-0-3-5----
C|-0-5h6-5-0-5-0-0-0-0-3-------5-4-3---------12\

Stave 6:

F|-----------------------------------------------------
C|-----------------------------------------------------
G|-------------3-3-----3-------1-1-------3-3-3-3-3-----
C|-0-0-3/5-3-0-----3h5---5-3-0-----3/5-3-----------5-3-

Stave 7:

F|---------------------------------------------------------------------------
C|---------------------------------------------------------------------------
G|-------------3-3-----3-------1-1---------3-3-3-5-3-----1-1-1-1-1-1-3-3-3-3-
C|-0-0-3/5-3-0-----3h5---5-3-0-----3/5-3-0-----------5-3---------------------

Stave 8:

F|-------------------------------------------------------------
C|---------5---------------5-----------------------------------
G|-----------------8---------------8---------------------------
C|-3/5-5-5---5-5-5---5-5-5---5-5-5---5-3-0-0-5h6-5-0-3-0-0-0-0-

Stave 9:

F|-----------------------------------------------------------------
C|-----------------------------------------------------------------
G|-----------------------------------------------------------------
C|-3p0-0-0-0-0-0-3-0-0-0-0-3-0-0-0h5-3-0-0-0-0-0-3-0-0-0-3-0-0-0h5-

Stave 10:

F|-------------------------------------------
C|-------------------------------------------
G|----------------------------------1-1--3-3-
C|-3-0-0-0-0-0-3-0-0-0-0-3-0-0-0h5-----------

Stave 11:

F|--------------------------------------------------------------------------------
C|--------------------------------------------------------------------------------
G|--------------------------------------------------------------------------------
C|-3-0----3-0----0-0-3-0---0-0-3-0---0-0-3-0--0-0-3-0--0-0-3-0/6-5-3-5-3-0----/12\

http://www.guitartabcreator.com
Guitar Tab Creator is intended to store guitar tab created through the tool. It currently does not support in-line text editing. Any text you place in here will be lost. If you need to comment on your tab, please use the "Tab Notes" section located below.