Sound will begin in 5 seconds

Real Bass Medley

01234567891011121314151617181920212223
E
B
G
D
A
E
B
0 1 2 3 4 5 6 7 8 9 10 11 12 13 14 15 16 17 18 19 20 21 22 23
Song Science #1: How Pros Use 6 Chords to Write Hit Songs
(/) Slide Up  (\) Slide Down  (h) Hammer On  (p) Pull Off  (b) Bend (r) Release (v) Vibrato

Stave 1:

G|-----0-----|-------|-------0-----|-----------|-------------------|---------|-----------------
D|-2-2---2-0-|-------|---2-2---2-0-|-----------|---4---2-4-2-------|---------|-------------0-2-
A|-----------|---3-2-|-------------|---3-5-3-2-|-----4-------4-2-4-|---------|-------0-2-4-----
E|-----------|-------|-------------|-----------|-------------------|-0-0-0-0-|-0-2-3-----------

Stave 2:

G|-----------|-------------------|-----------|-----------------|-------------------|---------------------
D|-----------|-------------------|-----------|-----------------|-------------------|---------------------
A|---0-0-0-0-|---0-0-4-5-4-0-----|-----------|-----------------|---------3-3-------|---5-5-------3-3-----
E|-----------|---------------3-2-|---0-0-0-0-|---0-0-3-0-5-5-3-|---5-3-5-----5-3-5-|-------0-3-5-----0-3-

Stave 3:

G|---------------------|-----------------------|-----------------------|-----------------
D|---------------------|-----------------------|-----------------------|-----------------
A|-------------------3-|-----------------------|---------------------3-|-----3-5/6\5-3---
E|-5-5-5-3-5-5-0h3h5---|---5-5-5-3-5-5-0h3-0h3-|---5-5-5-3-5-5-0h3h5---|---5-----------5-

Stave 4:

G|-8-8-6-6-4-4-----|-------------------|-----------------|-----------------|-----------------
D|-------------6-6-|-------------------|-----5-----3-----|-----5-------3---|-----5-----3-----
A|-----------------|---8-8-6-6-4-4---3-|---3---3-6-----3-|---3---3-6-6---3-|---3---3-6-----3-
E|-----------------|---------------6---|-------------6---|-----------------|-------------6---

Stave 5:

G|---------------|-------------|-----|-------------|-----------|-------0---2-0-|-----------------|---
D|---------------|-------------|-----|-------------|-----------|-----2---3-----|-------0-3-3-2-0-|---
A|-3-0-0-1-1-2-3-|-----------3-|---2-|---0-0-3-2---|-------0-2-|---3-----------|-----2-----------|---
E|---------------|---0-0-2-3---|-----|-----------3-|---0-3-----|---------------|---3-------------|---

Stave 6:

G|---4-------------|-------------10----|---------3-2-----|---------4-|---------4-|-----4-7-9-|---5-5-4---
D|-----4---------0-|----------------12-|-----5-------5---|-----4-7---|-----4-7---|---5-------|---------5-
A|-2-----2-----2---|-------10h12-------|---3---3-------3-|---5-------|---5-------|-----------|-----------
E|---------2-0-----|-10-10-------------|-----------------|-----------|-----------|-----------|-----------

Stave 7:

G|-------------|-------------|---------|-------|-----------------|---------|---------|-
D|-------1-3---|-------0-1-2-|-3-------|-------|-----------------|---------|---------|-
A|---2-3-----4-|-1-3-4-------|---3-4---|---6---|-5-3-2-0-----2p0-|-4-4-4-4-|---------|-
E|-4-----------|-------------|-------4-|-6---4-|---------0h3-----|---------|-5-5-5-4-|-

Stave 8:

G|-------------|-------------|---------------|-----------|---------------|-----------
D|-----5-5---5-|-----5-----5-|-------5-5---5-|-----------|-----------7-6-|---5---3---
A|-------------|-------------|---------------|---3-1-3-1-|---5-5-3-5-----|-----5---5-
E|-3-3-----3---|---3---3-3---|---3-3-----3---|-----------|---------------|-----------

Stave 9:

G|-----------------|-----9-9-7-9-7----|-----7-7----|-----9-9-7-9-7----|-----10-10-7-|-
D|---------7-7-----|-7-7-----------10-|---------10-|-7-7-----------10-|-------------|-
A|-----5/7-----7-7-|------------------|-8-8--------|------------------|-8-8---------|-
E|-7-7-------------|------------------|------------|------------------|-------------|-

Stave 10:

G|-------------|-------------|-------------|--------11-8-10-8----|-------------|-----------------|-
D|-------------|---4-2---2-4-|-------------|------8-----------11-|-------------|-----------------|-
A|---4-2---2-4-|-0-----4-----|---4-2---2-4-|----9----------------|---7---------|-----------------|-
E|-0-----4-----|-------------|-0-----4-----|-11------------------|-0---6-5-3-0-|-3-0-2-0-2-3-2-0-|-

Stave 11:

G|---------------------|---------------------|-----------------|-------|---------|---------|-
D|-----------------2-3-|-4-------------------|-----------------|-12----|---6-7-7-|-7-6-----|-
A|-4-------0-2-3-4-----|---------0-2-3-2-0---|---7---5-------5-|----12-|-7-------|-----9-9-|-
E|---2-0-2-------------|---2-0-2-----------2-|-0---7---0-0-7---|-------|---------|---------|-

Stave 12:

G|---------|---------|---------|-8---8-----------|-----------|-------3-------|---------|-
D|---------|---------|---6-7-7-|-------5-6-8-5---|-6-6-5---8-|-5-3-5---5-3-5-|-5-3-----|-
A|-9-7-5-5-|-5-9-7-7-|-7-------|---6-----------6-|-------8---|---------------|-----3-5-|-
E|---------|---------|---------|-----------------|-----------|---------------|---------|-

Stave 13:

G|---------------|-----3---|---------|---------|---3-5-7-5-3---|-3-----------|-----|-
D|-------3-------|-3-5---5-|-5-5-5-5-|-3-3-3-3-|-5-----------5-|---5-3---3---|-5-3-|-
A|-5-3-5---5-3-5-|---------|---------|---------|---------------|-------5---5-|-----|-
E|---------------|---------|---------|---------|---------------|-------------|-----|-

Stave 14:

G|-----------|-----------|---3-|-----5-7-3-3-|---------------|-----|-----------------------
D|-5-3-------|-------3-4-|-5---|-5-3---------|-5-3---3-------|-5-3-|-5-5-5-5-5-5-5-5-3-3-3-
A|-----5-3---|---3h5-----|-----|-------------|-----5---5-3---|-----|-----------------------
E|---------6-|-3---------|-----|-------------|-------------6-|-----|-----------------------

Stave 15:

G|-----|-----3---|-----------
D|-----|-5-5---5-|-3-3---3---
A|-----|---------|-----5-----
E|-3-3-|---------|---------3-

http://www.guitartabcreator.com
Guitar Tab Creator is intended to store guitar tab created through the tool. It currently does not support in-line text editing. Any text you place in here will be lost. If you need to comment on your tab, please use the "Tab Notes" section located below.