Sound will begin in 5 seconds

Bass medley

01234567891011121314151617181920212223
E
B
G
D
A
E
B
0 1 2 3 4 5 6 7 8 9 10 11 12 13 14 15 16 17 18 19 20 21 22 23
Song Science #1: How Pros Use 6 Chords to Write Hit Songs
(/) Slide Up  (\) Slide Down  (h) Hammer On  (p) Pull Off  (b) Bend (r) Release (v) Vibrato

Stave 1:

G|------------------|--------|------------------|--------------|--------------------------|--
D|------------------|--------|------------------|--------------|--4-----2--4--2-----------|--
A|------------------|--------|------------------|--------------|-----4-----------4--2--4--|--
E|--7--7--10--7--5--|--3--2--|--7--7--10--7--5--|--3--5--3--2--|--------------------------|--

Stave 2:

G|--------------------------|--------------|-----------------------|--------------|--------------------|--
D|--4-----2--4--2-----------|--------------|-----------------0--2--|--------------|-----4-----5--4-----|--
A|-----4-----------4--2--4--|--------------|--------0--2--4--------|--------------|--0-----0--------0--|--
E|--------------------------|--0--0--0--0--|--2--3-----------------|--0--0--0--0--|--------------------|--

Stave 3:

G|--------------------|--------------------|--------------------|--------------------|--
D|--------------------|--------------------|--------------------|--------------------|--
A|--------------------|--------------------|--------------------|--------------------|--
E|--3--2--0--0--0--0--|--0--0--0--3--0--5--|--5--3--0--0--0--0--|--0--0--0--3--0--5--|--

Stave 4:

G|--------------------------------|-----------------------------|--------------------------|--
D|--------------------------------|-----------------------------|--------------------------|--
A|-----------------3--3-----------|--5--5-----------3--3--------|--------------3-----------|--
E|--5--3--5--3--5--------5--3--5--|--------0--3--5--------0--3--|--5--5--3--5-----5--3--5--|--

Stave 5:

G|--------------------------|------------------------------|------------------------------|--
D|--------------------------|------------------------------|------------------------------|--
A|--5--5-----------3--------|---------------------------3--|------------------------------|--
E|--------0--3--5-----0--3--|--5--5--5--3--5--5--0h3h5-----|--5--5--5--3--5--5--0h3--0h3--|--

Stave 6:

G|------------------------------|------------------------|--8--8--6--6--4--4--------
D|------------------------------|------------------------|--------------------6--6--
A|---------------------------3--|-----3--5/6\5--3--------|--------------------------
E|--5--5--5--3--5--5--0h3h5-----|--5---------------5--3--|--------------------------

http://www.guitartabcreator.com
Guitar Tab Creator is intended to store guitar tab created through the tool. It currently does not support in-line text editing. Any text you place in here will be lost. If you need to comment on your tab, please use the "Tab Notes" section located below.