Sound will begin in 5 seconds

Ben Poole style- Have you ever loved a woman [intro]

Chords
01234567891011121314151617181920212223
E
B
G
D
A
E
B
0 1 2 3 4 5 6 7 8 9 10 11 12 13 14 15 16 17 18 19 20 21 22 23
Song Science #1: How Pros Use 6 Chords to Write Hit Songs
(/) Slide Up  (\) Slide Down  (h) Hammer On  (p) Pull Off  (b) Bend (r) Release (v) Vibrato

Stave 1:

E|----------------------------------------------------------------------------------------------------
B|--6----------------------------------------------------------------------5--6--------------------6--
G|--5-----------6--7--8v--6-------6----------------------------------------4--5-------------6h7h8-----
D|--6-----5--8---------------8b9-----8--6---------------------6h8p6h8p6h8--5--6--------5h8------------
A|--5--8-----------------------------------8--7--6v------------------------4--8-----8-----------------
E|---------------------------------------------------9b10--6------------------------------------------

Stave 2:

E|--9b10--6--------------------------------------------------------------------------------------------------
B|-----------9p6--------6--------------------------------6--6--6--6------------------------------------------
G|----------------8b10-----6-----------------7-------6v--5--5--5--5----------6-----8b10--8--6--8p6--8b10r10--
D|----------------------------8--8v-----5/6-----6\5------6--6--6--6-----6h8-----8----------------------------
A|-------------------------------------------------------5--5--5--5------------------------------------------
E|-----------------------------------------------------------------------------------------------------------

Stave 3:

E|------------------------------------------------------------------6------6-8--6------------------------
B|--6--9--6-----6---------------------------------------------------6h8p6--6/8--6--------6---------------
G|-----------8-----8b10r8b10r8--6-----8-----6--10r8-----6/7\6-7--------------------8-----6b7-------------
D|---------------------------------8-----8-----------8--5-6-5/6-----------------------8-------8-----6b7--
A|-----------------------------------------------------------------------------------------------8-------
E|-------------------------------------------------------------------------------------------------------

Stave 4:

E|-------------------------6-----8b10--8--6--6h8p6--------------------------------------------------10---------
B|--------------------6h8-----8---------------------8/9--8--6--------6-----------------------------------------
G|--------------6----------------------------------------------8b10-----8b10r8b10--6------------10------10--9--
D|-----------5------------------------------------------------------------------------8--8v--------------------
A|--8--7--6----------------------------------------------------------------------------------------------------
E|-------------------------------------------------------------------------------------------------------------

Stave 5:

E|--9--------8--------6---------11--
B|--------------------6h8p6--8--10--
G|-----9--8-----8--7------------10--
D|----------------------------------
A|----------------------------------
E|----------------------------------

http://www.guitartabcreator.com
Guitar Tab Creator is intended to store guitar tab created through the tool. It currently does not support in-line text editing. Any text you place in here will be lost. If you need to comment on your tab, please use the "Tab Notes" section located below.