Sound will begin in 5 seconds

Rains in the storm

Chords
01234567891011121314151617181920212223
E
B
G
D
A
E
B
0 1 2 3 4 5 6 7 8 9 10 11 12 13 14 15 16 17 18 19 20 21 22 23
(/) Slide Up  (\) Slide Down  (h) Hammer On  (p) Pull Off  (b) Bend (r) Release (v) Vibrato

Proloog

E|----------------------------------------------------------------------------------------------------
B|--5--------5--------5-----6\5--------5--------5--0--------3--------0-----0--------3--------0--------
G|-----0--------0--------0-------0--------0-----------5--------5--------5-----5--------5--------0-----
D|----------------------------------------------------------------------------------------------------
A|--3-----3--------3--------3-------3--------3--------------------------------------------------------
E|-------------------------------------------------5-----5--------5--------5-----5--------5-----------

Couplet 1

E|-------------------------------------------------------------------------------------------------------------------------------------------------------------
B|--8--------8--------8-----8--------8--------8--------3--------3--------3-----3--------3--------3/5-----5--------5--------8--6--5-----3--------3--------3--0--
G|-----5--------5--------5-----5--------5--------5--------0--------0--------0-----0--------0----------------0--------0--------------------0--------0-----------
D|-------------------------------------------------------------------------------------------------------------------------------------------------------------
A|--8-----8--------8--------8-----8--------8-------------------------------------------------------------3-----3--------3--------------------------------------
E|-----------------------------------------------------3-----3--------3--------3-----3--------3----------------------------------------3-----3--------3--------

Refrein

E|--------------------------------------------------------------------------------------------------------------------------------------------------------------------------------------------------
B|--1--------1--------1-----1--------1--------1-----1--------1--------1-----1--------1--------1-----1--------1--------1-----1--------1--------1-----0--------0--------0-----0--------0--------0-----
G|-----2--------2--------2-----2--------2--------2-----2--------2--------2-----2--------2--------2-----0--------0--------0-----0--------0--------0-----0--------0--------0-----0--------0--------0--
D|--------2--------2--------------2--------2--------------3--------3--------------3--------3--------------2--------2--------------2--------2--------------0--------0--------------0--------0--------
A|--0-----------------------0-----------------------3-----------------------3-----------------------3-----------------------3-----------------------------------------------------------------------
E|--------------------------------------------------------------------------------------------------------------------------------------------------3-----------------------3-----------------------

http://www.guitartabcreator.com
Guitar Tab Creator is intended to store guitar tab created through the tool. It currently does not support in-line text editing. Any text you place in here will be lost. If you need to comment on your tab, please use the "Tab Notes" section located below.