Sound will begin in 5 seconds

Metal Riff 1

Chords
01234567891011121314151617181920212223
E
B
G
D
A
E
B
0 1 2 3 4 5 6 7 8 9 10 11 12 13 14 15 16 17 18 19 20 21 22 23
Song Science #1: How Pros Use 6 Chords to Write Hit Songs
(/) Slide Up  (\) Slide Down  (h) Hammer On  (p) Pull Off  (b) Bend (r) Release (v) Vibrato

Stave 1:

E|--------------------------------------------------------------------------------
B|--------------------------------------------------------------------------------
G|--------------------------------------------------------------------------------
D|--------------5--------------7--------------------------5--------------4--6--3--
A|--------------5--------------7--------------------------5--------------4--6--3--
E|--0--0--0--0--5--0--0--0--0--7--0--0--0--0--0--0--0--0--5--0--0--0--0--4--6--3--

Stave 2:

E|---------------------------------------------------------------8h9h10-------------------------
B|-------------------------------------------------------8h9h10----------8h9h10-----------------
G|--------8--7--6--------6--7b7------------------8h9h10--------------------------8h9h10--5h6h7--
D|--6--7-----------8--7------------------8h9h10-------------------------------------------------
A|-------------------------------8h9h10---------------------------------------------------------
E|----------------------------------------------------------------------------------------------

http://www.guitartabcreator.com
Guitar Tab Creator is intended to store guitar tab created through the tool. It currently does not support in-line text editing. Any text you place in here will be lost. If you need to comment on your tab, please use the "Tab Notes" section located below.