Sound will begin in 5 seconds

Indie sad

Chords
01234567891011121314151617181920212223
E
B
G
D
A
E
B
0 1 2 3 4 5 6 7 8 9 10 11 12 13 14 15 16 17 18 19 20 21 22 23
(/) Slide Up  (\) Slide Down  (h) Hammer On  (p) Pull Off  (b) Bend (r) Release (v) Vibrato

Intro guitarra 1, Si Sol# Fa#

E|--------------
B|--------------
G|--11--11--11--
D|--9---9---9---
A|------11--9---
E|--------------

Intro guitarra 2: Si Sol# Fa#

E|-----------
B|-----------
G|-----------
D|--9--6--4--
A|--9--6--4--
E|--7--4--2--

Estrofa guitarra 2: Si Sol# Fa# La# Si

E|--------------------
B|--------------------
G|-----------6--------
D|--9--6--4--6--8--9--
A|--9--6--4--4--8--9--
E|--7--4--2-----6--7--

Estrofa guitarra 1: Si sol# Fa# La# Si

E|--------------------------------------------------------------------------
B|--------------------------------------------------------------------------
G|-----11-----11---------11------11---------11-----11---------11-----11-----
D|--9------9------9---------------------------------------11------8------8--
A|-------------------11------11------11--9------9------9--------------------
E|--------------------------------------------------------------------------

Coro guitarra 2: Si La# Sol# La# Si

E|-----------------
B|-----------------
G|-----------------
D|--9--8--6--8--9--
A|--9--8--6--8--9--
E|--7--6--4--6--7--

Coro guitarra 1: Si La# Sol# La# Si

E|------------------------------------------------------------------------
B|----------------9----------------9--------------------------------------
G|-----11-----11--------11-----11---------11------11-----11-----11--------
D|--9------9---------8------8-------------------------8------8------8--9--
A|------------------------------------11------11--------------------------
E|------------------------------------------------------------------------

Solo, lo mismo que las estrofas o ahí veo

E|--
B|--
G|--
D|--
A|--
E|--

Coro final guitarra 1

E|--
B|--
G|--
D|--
A|--
E|--

Coro final guitarra 2

E|--
B|--
G|--
D|--
A|--
E|--

Final guitarra 1 igual que el coro

E|--
B|--
G|--
D|--
A|--
E|--

http://www.guitartabcreator.com
Guitar Tab Creator is intended to store guitar tab created through the tool. It currently does not support in-line text editing. Any text you place in here will be lost. If you need to comment on your tab, please use the "Tab Notes" section located below.