Sound will begin in 5 seconds

Hard alternative tab

Chords
01234567891011121314151617181920212223
E
B
G
D
A
E
B
0 1 2 3 4 5 6 7 8 9 10 11 12 13 14 15 16 17 18 19 20 21 22 23
(/) Slide Up  (\) Slide Down  (h) Hammer On  (p) Pull Off  (b) Bend (r) Release (v) Vibrato

Capo Fret 3

intro x4: Mi

E|------------------------------------------------------------------------------------------------
B|------------------------------------------------------------------------------------------------
G|------------------------------------------------------------------------------------------------
D|--2--2--2--0----------------------------2--2--2--0----------------------------------------------
A|--2--2--------2--2--2\0-----0--2--0-----2--2--------2--2--2\0-----0--2--0-----------------------
E|--0--0-------------------3-----------3--0--0-------------------3-----------3--------------------

Pre estrofa: Fa Sol La

E|-----------------------------------------------------------------------------------------------
B|-----------------------------------------------------------------------------------------------
G|-----------------------------------------------------------------------------------------------
D|--3--5--7--------------7--------------3--5--7--------------7-----------3--3--3--3--3--3--3--3--
A|--3--5--7--------------7--------------3--5--7--------------7-----------3--3--3--3--3--3--3--3--
E|--1--3--5--8--7--5--3--5--8--7--5--3--1--3--5--8--7--5--3--5--8--7--5--1--1--1--1--1--1--1--1--



E|--------------------------------------------------------------------------------------------------------
B|--------------------------------------------------------------------------------------------------------
G|--------------------------------------------------------------------------------------------------------
D|--5--5--5--5--5--5--5--5--7--------------7--------------3--3--3--3--3--3--3--3--5--5--5--5--5--5--5--5--
A|--5--5--5--5--5--5--5--5--7--------------7--------------3--3--3--3--3--3--3--3--5--5--5--5--5--5--5--5--
E|--3--3--3--3--3--3--3--3--5--8--7--5--3--5--8--7--5--3--1--1--1--1--1--1--1--1--3--3--3--3--3--3--3--3--



E|--------------------------------
B|--------------------------------
G|--------------------------------
D|--7--------------7--------------
A|--7--------------7--------------
E|--5--8--7--5--3--5--8--7--5--3--

Estrofa: La Do Re Fa Sol

E|-------------------|-------------------
B|-------------------|-------------------
G|-----5--7--10--12--|-----5--7--10--12--
D|--7--5--7--10--12--|--7--5--7--10--12--
A|--7--3--5--8---10--|--7--3--5--8---10--
E|--5----------------|--5----------------

Break pre coro: Sol La Sol Do Re

E|-----------------
B|-----------------
G|-----------5--7--
D|--5--7--5--5--7--
A|--5--7--5--3--5--
E|--3--5--3--------

Coro: lo mismo que el intro

E|--
B|--
G|--
D|--
A|--
E|--

Solo: Mi Sol La Do Re

E|-----------------
B|-----------------
G|-----------5--7--
D|--2--5--7--5--7--
A|--2--5--7--3--5--
E|--0--3--5--------

Break pro coro final, lo mismo que el break anteriror Sol La Sol Do Re

E|--
B|--
G|--
D|--
A|--
E|--

Coro final, lo mismo que el intro

E|--
B|--
G|--
D|--
A|--
E|--

http://www.guitartabcreator.com
Guitar Tab Creator is intended to store guitar tab created through the tool. It currently does not support in-line text editing. Any text you place in here will be lost. If you need to comment on your tab, please use the "Tab Notes" section located below.