Sound will begin in 5 seconds

Solo

01234567891011121314151617181920212223
E
B
G
D
A
E
B
0 1 2 3 4 5 6 7 8 9 10 11 12 13 14 15 16 17 18 19 20 21 22 23
Song Science #1: How Pros Use 6 Chords to Write Hit Songs
(/) Slide Up  (\) Slide Down  (h) Hammer On  (p) Pull Off  (b) Bend (r) Release (v) Vibrato

Stave 1:

E|----------------------------------------------------------16-14-11-12-12-12-12-8-8-8-8---------------------
B|----------------------------------------------------17-14------------------------------------------------7-
G|----------17----------16----------15----------14-16------------------------------------------------1-3-5---
D|-------18----------17----------16----------15--------------------------------------------------1-2---------
A|----19----------18----------17----------16-------------------------------------------------1-4-------------
E|-20----------19----------18----------17------------------------------------------------1-3-----------------

Stave 2:

E|-----------------------------17-15-14-12-11-9-7-6-4-2-0-
B|-----------10----12-------------------------------------
G|-6-9-11-------------14-15-17----------------------------
D|--------10----12----------------------------------------
A|--------------------------------------------------------
E|--------------------------------------------------------

http://www.guitartabcreator.com
Guitar Tab Creator is intended to store guitar tab created through the tool. It currently does not support in-line text editing. Any text you place in here will be lost. If you need to comment on your tab, please use the "Tab Notes" section located below.