Sound will begin in 5 seconds

toto drag him to the roof improv solos 1 and 2

01234567891011121314151617181920212223
E
B
G
D
A
E
B
0 1 2 3 4 5 6 7 8 9 10 11 12 13 14 15 16 17 18 19 20 21 22 23
Song Science #1: How Pros Use 6 Chords to Write Hit Songs
(/) Slide Up  (\) Slide Down  (h) Hammer On  (p) Pull Off  (b) Bend (r) Release (v) Vibrato

Stave 1:

E|----------------------------------------------------------------------------------------
B|----------------------------------12--15b17--15--12h15p12-------------------------------
G|--------------------------12--14---------------------------14--12--------------------5--
D|------------------12--14-------------------------------------------------------5--7-----
A|----------12--14---------------------------------------------------------5--7-----------
E|--12--15-----------------------------------------------------------5--8-----------------

Stave 2:

E|--------------------------------------------5/12p15-------------------------------------------
B|--14p12----------------------------7--5--4-----------15--12--------------------------17--20v--
G|---------14--12-----------7--5--4----------------------------14--12----------17--19-----------
D|-----------------7--5--4---------------------------------------------14--12-------------------
A|----------------------------------------------------------------------------------------------
E|----------------------------------------------------------------------------------------------

Stave 3:

E|----------17b19--
B|--14--15---------
G|-----------------
D|-----------------
A|-----------------
E|-----------------

http://www.guitartabcreator.com
Guitar Tab Creator is intended to store guitar tab created through the tool. It currently does not support in-line text editing. Any text you place in here will be lost. If you need to comment on your tab, please use the "Tab Notes" section located below.