Sound will begin in 5 seconds

kasabian fire solo thingy (made up)

Chords
01234567891011121314151617181920212223
E
B
G
D
A
E
B
0 1 2 3 4 5 6 7 8 9 10 11 12 13 14 15 16 17 18 19 20 21 22 23
Song Science #1: How Pros Use 6 Chords to Write Hit Songs
(/) Slide Up  (\) Slide Down  (h) Hammer On  (p) Pull Off  (b) Bend (r) Release (v) Vibrato

Stave 1:

E|---------------------------------------------------------------------------------------------------
B|---------------------------------------------------------------------------------------------------
G|--10b12r10b12v--10b12r10--12v--12--10------10---------------------------5--------5--------5--8b10--
D|---------------------------------------12------12p10------10-----/5--8-----5--8-----5--8-----------
A|------------------------------------------------------12-------------------------------------------
E|---------------------------------------------------------------------------------------------------

Stave 2:

E|------------------------------------------------------------------------------------------------------
B|-------------------------16b18--16v--16--13--11-------------------------------------------------------
G|--8b10--8--5-----5v--\1--------------------------12--10--8--10b12--10p8------8--10p8---------------8--
D|--------------8----------------------------------------------------------10-----------10p8------8-----
A|--------------------------------------------------------------------------------------------10--------
E|------------------------------------------------------------------------------------------------------

Stave 3:

E|--------------------------------------------------
B|-------------------------------8--------------10--
G|-------------------------------8--------------10--
D|--10p8------------------------------------13------
A|--------10p8-------------6--------13--15----------
E|--------------11--8\1/6---------------------------

http://www.guitartabcreator.com
Guitar Tab Creator is intended to store guitar tab created through the tool. It currently does not support in-line text editing. Any text you place in here will be lost. If you need to comment on your tab, please use the "Tab Notes" section located below.