Sound will begin in 5 seconds

Nordfrost

01234567891011121314151617181920212223
E
B
G
D
A
E
B
0 1 2 3 4 5 6 7 8 9 10 11 12 13 14 15 16 17 18 19 20 21 22 23
(/) Slide Up  (\) Slide Down  (h) Hammer On  (p) Pull Off  (b) Bend (r) Release (v) Vibrato

Intro:

G|-----------------------
D|-----------------------
A|-----------------------
E|-----------------------
C|--0--0--3--6--0--0--8--

Riff 1a:

G|-----------------------------------------
D|-----------------------------------------
A|-----------------------------------------
E|--------------------------------------1--
C|--1--0--0--0--0--0--0--0--1--0--0--0-----

Riff 1b:

G|--------------------------------------------
D|--------------------------------------------
A|--------------------------------------------
E|--------------------------------------------
C|--1--0--0--0--0--0--0--0--1--0--0--0-----1--

Riff 1c:

G|-----------------------------------------
D|-----------------------------------------
A|-----------------------------------------
E|--------------------------------------8--
C|--1--0--0--0--0--0--0--0--1--0--0--0-----

Stave 5:

G|--------------------------------------------------
D|--------------------------------------------------
A|--------------------------------------------------
E|--8--6--6--6--6--6--6--6--6--5--5--5--5--5--5--5--
C|--------------------------------------------------

Stave 6:

G|--
D|--
A|--
E|--
C|--

http://www.guitartabcreator.com
Guitar Tab Creator is intended to store guitar tab created through the tool. It currently does not support in-line text editing. Any text you place in here will be lost. If you need to comment on your tab, please use the "Tab Notes" section located below.