Sound will begin in 5 seconds

Mezi kopci 2

01234567891011121314151617181920212223
E
B
G
D
A
E
B
0 1 2 3 4 5 6 7 8 9 10 11 12 13 14 15 16 17 18 19 20 21 22 23
(/) Slide Up  (\) Slide Down  (h) Hammer On  (p) Pull Off  (b) Bend (r) Release (v) Vibrato

Jízda 2:

G|--------------------------------------------------------------------------------------------|--
D|--------------------------------------------------------------------------------------------|--
A|--------------------------------------------------------------------------------------------|--
E|--1--3--3--3--3--3--1--1--1--1--1--3--3--3--3--3--------------------1--3--3--3--3--3--3--3--|--
C|--------------------------------------------------3--3--3--3--3--3--------------------------|--

Návrat rozklad 2

G|--
D|--
A|--
E|--
C|--

intermezzo

G|-----------------------------------------|--------|--|-----
D|-----------------------------------------|--------|--|-----
A|-----------------------------------------|--------|--|-----
E|--5-----5--5-----4-----5-----5--6-----6--|--8-----|--|-----
C|-----------------------------------------|-----5--|--|-----

Stave 4:

G|-----------------------------------------------------------------
D|-----------------------------------------------------------------
A|-----------------------------------------------------------3--5--
E|--5-----5--5-----4-----5-----5--6-----6--------5--8--3--5--------
C|-----------------------------------------5--7--------------------

http://www.guitartabcreator.com
Guitar Tab Creator is intended to store guitar tab created through the tool. It currently does not support in-line text editing. Any text you place in here will be lost. If you need to comment on your tab, please use the "Tab Notes" section located below.