Sound will begin in 5 seconds

Mezi kopci 1

01234567891011121314151617181920212223
E
B
G
D
A
E
B
0 1 2 3 4 5 6 7 8 9 10 11 12 13 14 15 16 17 18 19 20 21 22 23
(/) Slide Up  (\) Slide Down  (h) Hammer On  (p) Pull Off  (b) Bend (r) Release (v) Vibrato

Rozklad 1

G|-----------------------|-----------------------|-----------------------------------------------------|--
D|-----------------------|-----------------------|-----------------------------------------------------|--
A|-----------------------|--5--5-----3--3-----6--|-----------------------------------5--3--------------|--
E|-----2-----3-----5--4--|-----------------------|-----------2-----3-----5--4--5--6--------1--3--1-----|--
B|--2-----2-----2--------|-----------------------|--------2-----2-----2-----------------------------2--|--

Rozklad 2:

G|--------------------------------------------|--|--------------------------------------------------
D|--------------------------------------------|--|--------------------------------------------------
A|--------0-----1-----5--5--3--3--------------|--|--------------------------------------------------
E|--3--3-----3-----3--------------1--3--1-----|--|--1--3--1-----1--3--1-----------0-----1-----0-----
B|-----------------------------------------2--|--|-----------2-----------2--2--2-----2-----2-----2--



G|-----------------------------------------------|--|--------------------------------------------------|--
D|-----------------------------------------------|--|--------------------------------------------------|--
A|-----------------------------------------------|--|--------------------------------------------------|--
E|--3--3--1--1--0--1--0--------------1-----0-----|--|--1--3--1-----1--3--1-----0--1--0-----0--1--0-----|--
B|-----------------------2--2--2--2-----2-----2--|--|-----------2-----------2-----------2-----------2--|--

Jízda 1:

G|--------------------------------------------------------------------------|--
D|--------------------------------------------------------------------------|--
A|-----------------------------------1--2--1--------------3--2--------------|--
E|--------------------------------------------------------------3--4--3--1--|--
B|--2--3--------2-----2--2--2-----2--------------2--3-----------------------|--

http://www.guitartabcreator.com
Guitar Tab Creator is intended to store guitar tab created through the tool. It currently does not support in-line text editing. Any text you place in here will be lost. If you need to comment on your tab, please use the "Tab Notes" section located below.