Sound will begin in 5 seconds

Ja nechic monoho

01234567891011121314151617181920212223
E
B
G
D
A
E
B
0 1 2 3 4 5 6 7 8 9 10 11 12 13 14 15 16 17 18 19 20 21 22 23
(/) Slide Up  (\) Slide Down  (h) Hammer On  (p) Pull Off  (b) Bend (r) Release (v) Vibrato

Intro motiv:

G|--------------------------------|--------------------------------|--
D|--------------------------------|-----------------------------2--|--
A|-----------------------2--1-----|-----------------------2--1-----|--
E|--0-----0--0-----2--3--------3--|--0-----0--0-----2--3-----------|--
C|--------------------------------|--------------------------------|--

Stave 2:

G|-----------------------------|--|-----------------------------------|--|--
D|--------------------2--2--2--|--|--1--3--2--1--0--2--1--3--2--1--0--|--|--
A|--2--0--2--0--2--0-----------|--|-----------------------------------|--|--
E|-----------------------------|--|-----------------------------------|--|--
C|-----------------------------|--|-----------------------------------|--|--

Stave 3:

G|--------------------------------------------------------------------------------|--
D|--------------------------------------------------------------------------------|--
A|--------------------------------------------------------------------------------|--
E|--------------------------------------------------------------------------------|--
C|--0--0--2--0--0--3--0--0--2--0--3--0--2--0--0--2--0--0--3--0--0--2--0--3--0--2--|--

Stave 4:

G|--------------------------------------------------------------------------------|--
D|--------------------------------------------------------------------------------|--
A|--------------------------------------------------------------------------------|--
E|--0--0--2--0--0--3--0--0--2--0--3--0--2--0--0--2--0--0--3--0--0--2--0--3--0--2--|--
C|--------------------------------------------------------------------------------|--

Intro motiv znovu

G|--
D|--
A|--
E|--
C|--

až do komnat zameckých se s vámi podívauu:

G|--------------------------------------------------------------|--
D|--------------------------------------------------------------|--
A|--------------------------------------------------------5--7--|--
E|--0--0--0--0--0--0--0--3--5--------0--0--0--0--0--0--0--------|--
C|--------------------------------------------------------------|--

Ref: On hejtman jest teď náš!

G|--------------------------------------------------------------|--
D|--------------------------------------------------------------|--
A|--------------------------------------------------------------|--
E|-----0--0--0--0--0-----------------0--0--0--0--0--1--3--1-----|--
C|--2-----------------2--2--2--2--2--------------------------0--|--

http://www.guitartabcreator.com
Guitar Tab Creator is intended to store guitar tab created through the tool. It currently does not support in-line text editing. Any text you place in here will be lost. If you need to comment on your tab, please use the "Tab Notes" section located below.