Sound will begin in 5 seconds

boh1

01234567891011121314151617181920212223
E
B
G
D
A
E
B
0 1 2 3 4 5 6 7 8 9 10 11 12 13 14 15 16 17 18 19 20 21 22 23
Song Science #1: How Pros Use 6 Chords to Write Hit Songs
(/) Slide Up  (\) Slide Down  (h) Hammer On  (p) Pull Off  (b) Bend (r) Release (v) Vibrato

Stave 1:

E|-------------------------------------------------------------------------------------------------------------------------------------|-----
B|--------------------15------------------------12--15v------------------------15----------------------------------12h13h15--12h14h15--|-----
G|----12--12--13--12------14--12--13--------13-----------14--12----12--13--12------14--12--13------------12h14h15----------------------|-----
D|--------------------------------------14-----------------------------------------------------12h13h14--------------------------------|-----
A|-------------------------------------------------------------------------------------------------------------------------------------|-----
E|-------------------------------------------------------------------------------------------------------------------------------------|-----

Stave 2:

E|--------------------------------------------------------------------------------------------------------------------------------------------
B|--------------------15------------------------------------------------------------------------------------------18--17--15------18--17--15--
G|----12--12--13--12------14--12--13------12--14--15v--15v--12----------------------------14--16--17--14--16--17--------------17--------------
D|------------------------------------12--------------------------12--13--14--12--13--14------------------------------------------------------
A|--------------------------------------------------------------------------------------------------------------------------------------------
E|--------------------------------------------------------------------------------------------------------------------------------------------

Stave 3:

E|-------------------------------------------------------|--
B|------15--14--12------15--14--12-----------------------|--
G|--17--------------14--------------14v----12b14v--------|--
D|-------------------------------------------------------|--
A|-------------------------------------------------------|--
E|-------------------------------------------------------|--

http://www.guitartabcreator.com
Guitar Tab Creator is intended to store guitar tab created through the tool. It currently does not support in-line text editing. Any text you place in here will be lost. If you need to comment on your tab, please use the "Tab Notes" section located below.