Dissolve (Bass)

Chords

01234567891011121314151617181920212223
E
B
G
D
A
E
B
0 1 2 3 4 5 6 7 8 9 10 11 12 13 14 15 16 17 18 19 20 21 22 23
(/) Slide Up  (\) Slide Down  (h) Hammer On  (p) Pull Off  (b) Bend (r) Release (v) Vibrato

Verse 1 ("Peer...") [repeat seq x16]

G|-----------------
D|-----------------
A|--7--0--0-----0--
E|-----------8-----

Chorus [repeat seq x2]

G|--------------------------------------------------------------------------------------------------
D|--------------------------------------------------------------------------------------------------
A|--8--8--8--8--8--8--8--8--8--8--8--8--8--8--8--8--------------------------------------------------
E|--------------------------------------------------8--8--8--8--8--8--8--8--8--8--8--8--8--8--8--8--



G|---------------------------------------------------------------------------------------------------------------------
D|---------------------------------------------------------------------------------------------------------------------
A|--10--10--10--10--10--10--10--10--10--10--10--10--10--10--10--10--8--8--8--8--8--8--8--8--8--8--8--8--8--10--10--10--
E|---------------------------------------------------------------------------------------------------------------------

Break + Verse 2 [repeat seq x8 in break, and a further 16x in verse 2]

G|-----------------
D|-----------------
A|--7--0--0-----0--
E|-----------8-----

Chorus 2 [same as above]

G|--
D|--
A|--
E|--

Mid 8 

G|----------------------------
D|----------------------------
A|----------------------------
E|--0--0--0--0--0--0--0--0--0h

Outro (back in with full drums after guitar lick) [repeat seq x3, end on open E]

G|--------------------------------------------------------------------------------------------------
D|--------------------------------------------------------------------------------------------------
A|--------------------------------------------------------------------------------------------------
E|--5--5--5--5--5--5--5--5--5--5--5--5--5--5--5--5--1--1--1--1--1--1--1--1--1--1--1--1--1--1--1--1--



G|--------------------------------------------------------------------------------------------------
D|--------------------------------------------------------------------------------------------------
A|--3--3--3--3--3--3--3--3--3--3--3--3--3--3--3--3--------------------------------------------------
E|--------------------------------------------------0--0--0--0--0--0--0--0--0--0--0--0--0--0--0--0--

							http://www.guitartabcreator.com
Instruments
{"strings":[[[".",".",".",".","."],[".",".",".",".","."],[7,0,0,".",0],[".",".",".",8,"."]],[[".",".",".",".",".",".",".",".",".",".",".",".",".",".",".",".",".",".",".",".",".",".",".",".",".",".",".",".",".",".",".","."],[".",".",".",".",".",".",".",".",".",".",".",".",".",".",".",".",".",".",".",".",".",".",".",".",".",".",".",".",".",".",".","."],[8,8,8,8,8,8,8,8,8,8,8,8,8,8,8,8,".",".",".",".",".",".",".",".",".",".",".",".",".",".",".","."],[".",".",".",".",".",".",".",".",".",".",".",".",".",".",".",".",8,8,8,8,8,8,8,8,8,8,8,8,8,8,8,8]],[[".",".",".",".",".",".",".",".",".",".",".",".",".",".",".",".",".",".",".",".",".",".",".",".",".",".",".",".",".",".",".","."],[".",".",".",".",".",".",".",".",".",".",".",".",".",".",".",".",".",".",".",".",".",".",".",".",".",".",".",".",".",".",".","."],[10,10,10,10,10,10,10,10,10,10,10,10,10,10,10,10,8,8,8,8,8,8,8,8,8,8,8,8,8,10,10,10],[".",".",".",".",".",".",".",".",".",".",".",".",".",".",".",".",".",".",".",".",".",".",".",".",".",".",".",".",".",".",".","."]],[[".",".",".",".","."],[".",".",".",".","."],[7,0,0,".",0],[".",".",".",8,"."]],[[],[],[],[]],[[".",".",".",".",".",".",".",".",".","."],[".",".",".",".",".",".",".",".",".","."],[".",".",".",".",".",".",".",".",".","."],[0,0,0,0,0,0,0,0,0,"h"]],[[".",".",".",".",".",".",".",".",".",".",".",".",".",".",".",".",".",".",".",".",".",".",".",".",".",".",".",".",".",".",".","."],[".",".",".",".",".",".",".",".",".",".",".",".",".",".",".",".",".",".",".",".",".",".",".",".",".",".",".",".",".",".",".","."],[".",".",".",".",".",".",".",".",".",".",".",".",".",".",".",".",".",".",".",".",".",".",".",".",".",".",".",".",".",".",".","."],[5,5,5,5,5,5,5,5,5,5,5,5,5,5,5,5,1,1,1,1,1,1,1,1,1,1,1,1,1,1,1,1]],[[".",".",".",".",".",".",".",".",".",".",".",".",".",".",".",".",".",".",".",".",".",".",".",".",".",".",".",".",".",".",".","."],[".",".",".",".",".",".",".",".",".",".",".",".",".",".",".",".",".",".",".",".",".",".",".",".",".",".",".",".",".",".",".","."],[3,3,3,3,3,3,3,3,3,3,3,3,3,3,3,3,".",".",".",".",".",".",".",".",".",".",".",".",".",".",".","."],[".",".",".",".",".",".",".",".",".",".",".",".",".",".",".",".",0,0,0,0,0,0,0,0,0,0,0,0,0,0,0,0]]],"numberofstrings":4,"notes":["G","D","A","E"],"capo":0,"stringnotes":["G2","D2","A1","E1"],"comments":["Verse 1 (\"Peer...\") [repeat seq x16]","Chorus [repeat seq x2]","","Break + Verse 2 [repeat seq x8 in break, and a further 16x in verse 2]","Chorus 2 [same as above]","Mid 8 ","Outro (back in with full drums after guitar lick) [repeat seq x3, end on open E]",""],"timing":[["W","W","W","W","W","W","W","W","W","W","W","W","W","W","W","W","W","W","W","W"],["W","W","W","W","W","W","W","W","W","W","W","W","W","W","W","W","W","W","W","W","W","W","W","W","W","W","W","W","W","W","W","W"],["W","W","W","W","W","W","W","W","W","W","W","W","W","W","W","W","W","W","W","W","W","W","W","W","W","W","W","W","W","W","W","W"],["W","W","W","W","W"],[],["W","W","W","W","W","W","W","W","W"],["W","W","W","W","W","W","W","W","W","W","W","W","W","W","W","W","W","W","W","W","W","W","W","W","W","W","W","W","W","W","W","W"],["W","W","W","W","W","W","W","W","W","W","W","W","W","W","W","W","W","W","W","W","W","W","W","W","W","W","W","W","W","W","W","W"]],"timingvisible":false,"tabcounter":32,"stave":7,"totalstaves":8,"instrument":"4bass","selectedtuning":"4bass","version":"13"}

Member for

11 months
Submitted by Danny Pugh on Sat, 2020-07-04 03:47