Anarqueen (bass)

Chords

01234567891011121314151617181920212223
E
B
G
D
A
E
B
0 1 2 3 4 5 6 7 8 9 10 11 12 13 14 15 16 17 18 19 20 21 22 23
(/) Slide Up  (\) Slide Down  (h) Hammer On  (p) Pull Off  (b) Bend (r) Release (v) Vibrato

Intro [repeat seq x2]

G|----------------------------------------------------------------------
D|----------------------------------------------------------------------
A|-7-7-7----7-7-7----7-7-7----7-7-7-------------------------------------
E|-------------------------------------9-9-9----9-9-9----8-8-8----8-8-8-

Verse 1 [repeat seq x2]

G|----------------------------------------------
D|----------------------------------------------
A|-7-7p7-7p---7-7p7-7p--------------------------
E|-----------------------9p---9-9-9-8----8p---8p

Chorus

G|-----------------------------------------------------------------
D|-----------------------------------------------------------------
A|-2-2-2-2-2-2-2-2-2-2-2-2-2-2-2-2---------------------------------
E|---------------------------------0-0-0-0-0-0-0-0-0-0-0-0-0-0-0-0-



G|-------------------------------------------------------------------------
D|-------------------------------------------------------------------------
A|-------------------------------------9-9-9-9-----9-9-9-9-----------------
E|-4-4-4-4-4-4-4-4-2-2-2-2-2-2-2-2-6-6---------6-6---------6-6-6-6-6-6-6-6-



G|-----------------------------------------------------------------
D|-----------------------------------------------------------------
A|-----------------------------------------------------------------
E|-7-7-7-7-7-7-7-7-7-7-7-7-7-7-7-7-0-0-0-0-0-0-0-0-0-0-0-0-0-0-0-0-



G|-------------------------------------------------------------------
D|-------------------------------------------------------------------
A|-------------------------------------9-9-9-9-----9-9-9-9-----------
E|-4-4-4-4-4-4-4-4-2-2-2-2-2-2-2-2-6-6---------6-6---------6\6\6\6\0-

Verse 2 & Chorus 2: same as above

G|----
D|----
A|----
E|----

Outro (come back in when drums start to pick up, use demo as ref)

G|-9-9-9-9-9-9-9-9-9-9-9-9-9-9-9-9-------------------------------------------------
D|---------------------------------10-10-10-10-10-10-10-10-10-10-10-10-10-10-10-10-
A|---------------------------------------------------------------------------------
E|---------------------------------------------------------------------------------



G|---------------------------------------------------------------------------------
D|-------------------------------------------------9-9-9-9-9-9-9-9-9-9-9-9-9-9-9-9-
A|-10-10-10-10-10-10-10-10-10-10-10-10-10-10-10-10---------------------------------
E|---------------------------------------------------------------------------------



G|-----------------------------------------------------------------
D|-----------------------------------------------------------------
A|-7-7-7-7-7-7-7-7-7-7-7-7-7-7-7-7---------------------------------
E|---------------------------------8-8-8-8-8-8-8-8-8-8-8-8-8-8-8-8-



G|---------------------------------------------------------------------------------
D|---------------------------------------------------------------------------------
A|-10-10-10-10-10-10-10-10-10-10-10-10-10-10-10-10---------------------------------
E|-------------------------------------------------7-7-7-7-7-7-7-7-7-7-7-7-7-7-7-7-

When drums drop and all kicks in, repeat this twice (same notes as above just different octaves)

G|-----------------------------------------------------------------
D|-----------------------------------------------------------------
A|-7-7-7-7-7-7-7-7-7-7-7-7-7-7-7-7-3-3-3-3-3-3-3-3-3-3-3-3-3-3-3-3-
E|-----------------------------------------------------------------



G|-----------------------------------------------------------------
D|-----------------------------------------------------------------
A|---------------------------------2-2-2-2-2-2-2-2-2-2-2-2-2-2-2-2-
E|-3-3-3-3-3-3-3-3-3-3-3-3-3-3-3-3---------------------------------

							http://www.guitartabcreator.com
Instruments
{"strings":[[[".",".",".","_",".",".",".","_",".",".",".","_",".",".",".","_",".",".",".","_",".",".",".","_",".",".",".","_",".",".","."],[".",".",".","_",".",".",".","_",".",".",".","_",".",".",".","_",".",".",".","_",".",".",".","_",".",".",".","_",".",".","."],[7,7,7,"_",7,7,7,"_",7,7,7,"_",7,7,7,"_",".",".",".","_",".",".",".","_",".",".",".","_",".",".","."],[".",".",".","_",".",".",".","_",".",".",".","_",".",".",".","_",9,9,9,"_",9,9,9,"_",8,8,8,"_",8,8,8]],[[".",".",".",".",".",".","_",".",".",".",".",".",".","_",".",".","_",".",".",".",".","_",".",".","_",".","."],[".",".",".",".",".",".","_",".",".",".",".",".",".","_",".",".","_",".",".",".",".","_",".",".","_",".","."],[7,7,"p",7,7,"p","_",7,7,"p",7,7,"p","_",".",".","_",".",".",".",".","_",".",".","_",".","."],[".",".",".",".",".",".","_",".",".",".",".",".",".","_",9,"p","_",9,9,9,8,"_",8,"p","_",8,"p"]],[[".",".",".",".",".",".",".",".",".",".",".",".",".",".",".",".",".",".",".",".",".",".",".",".",".",".",".",".",".",".",".","."],[".",".",".",".",".",".",".",".",".",".",".",".",".",".",".",".",".",".",".",".",".",".",".",".",".",".",".",".",".",".",".","."],[2,2,2,2,2,2,2,2,2,2,2,2,2,2,2,2,".",".",".",".",".",".",".",".",".",".",".",".",".",".",".","."],[".",".",".",".",".",".",".",".",".",".",".",".",".",".",".",".",0,0,0,0,0,0,0,0,0,0,0,0,0,0,0,0]],[[".",".",".",".",".",".",".",".",".",".",".",".",".",".",".",".",".",".",".",".",".",".",".",".",".",".",".",".",".",".",".",".",".",".",".","."],[".",".",".",".",".",".",".",".",".",".",".",".",".",".",".",".",".",".",".",".",".",".",".",".",".",".",".",".",".",".",".",".",".",".",".","."],[".",".",".",".",".",".",".",".",".",".",".",".",".",".",".",".",".",".",9,9,9,9,".",".",9,9,9,9,".",".",".",".",".",".",".","."],[4,4,4,4,4,4,4,4,2,2,2,2,2,2,2,2,6,6,".",".",".",".",6,6,".",".",".",".",6,6,6,6,6,6,6,6]],[[".",".",".",".",".",".",".",".",".",".",".",".",".",".",".",".",".",".",".",".",".",".",".",".",".",".",".",".",".",".",".","."],[".",".",".",".",".",".",".",".",".",".",".",".",".",".",".",".",".",".",".",".",".",".",".",".",".",".",".",".",".",".",".","."],[".",".",".",".",".",".",".",".",".",".",".",".",".",".",".",".",".",".",".",".",".",".",".",".",".",".",".",".",".",".",".","."],[7,7,7,7,7,7,7,7,7,7,7,7,7,7,7,7,0,0,0,0,0,0,0,0,0,0,0,0,0,0,0,0]],[[".",".",".",".",".",".",".",".",".",".",".",".",".",".",".",".",".",".",".",".",".",".",".",".",".",".",".",".",".",".",".",".",".",".",".",".","."],[".",".",".",".",".",".",".",".",".",".",".",".",".",".",".",".",".",".",".",".",".",".",".",".",".",".",".",".",".",".",".",".",".",".",".",".","."],[".",".",".",".",".",".",".",".",".",".",".",".",".",".",".",".",".",".",9,9,9,9,".",".",9,9,9,9,".",".",".",".",".",".",".",".","."],[4,4,4,4,4,4,4,4,2,2,2,2,2,2,2,2,6,6,".",".",".",".",6,6,".",".",".",".",6,"\\",6,"\\",6,"\\",6,"\\",0]],[["_"],["_"],["_"],["_"]],[[9,9,9,9,9,9,9,9,9,9,9,9,9,9,9,9,".",".",".",".",".",".",".",".",".",".",".",".",".",".",".","."],[".",".",".",".",".",".",".",".",".",".",".",".",".",".",".",".",10,10,10,10,10,10,10,10,10,10,10,10,10,10,10,10],[".",".",".",".",".",".",".",".",".",".",".",".",".",".",".",".",".",".",".",".",".",".",".",".",".",".",".",".",".",".",".","."],[".",".",".",".",".",".",".",".",".",".",".",".",".",".",".",".",".",".",".",".",".",".",".",".",".",".",".",".",".",".",".","."]],[[".",".",".",".",".",".",".",".",".",".",".",".",".",".",".",".",".",".",".",".",".",".",".",".",".",".",".",".",".",".",".","."],[".",".",".",".",".",".",".",".",".",".",".",".",".",".",".",".",9,9,9,9,9,9,9,9,9,9,9,9,9,9,9,9],[10,10,10,10,10,10,10,10,10,10,10,10,10,10,10,10,".",".",".",".",".",".",".",".",".",".",".",".",".",".",".","."],[".",".",".",".",".",".",".",".",".",".",".",".",".",".",".",".",".",".",".",".",".",".",".",".",".",".",".",".",".",".",".","."]],[[".",".",".",".",".",".",".",".",".",".",".",".",".",".",".",".",".",".",".",".",".",".",".",".",".",".",".",".",".",".",".","."],[".",".",".",".",".",".",".",".",".",".",".",".",".",".",".",".",".",".",".",".",".",".",".",".",".",".",".",".",".",".",".","."],[7,7,7,7,7,7,7,7,7,7,7,7,7,7,7,7,".",".",".",".",".",".",".",".",".",".",".",".",".",".",".","."],[".",".",".",".",".",".",".",".",".",".",".",".",".",".",".",".",8,8,8,8,8,8,8,8,8,8,8,8,8,8,8,8]],[[".",".",".",".",".",".",".",".",".",".",".",".",".",".",".",".",".",".",".",".",".",".",".",".",".",".",".",".",".",".",".","."],[".",".",".",".",".",".",".",".",".",".",".",".",".",".",".",".",".",".",".",".",".",".",".",".",".",".",".",".",".",".",".","."],[10,10,10,10,10,10,10,10,10,10,10,10,10,10,10,10,".",".",".",".",".",".",".",".",".",".",".",".",".",".",".","."],[".",".",".",".",".",".",".",".",".",".",".",".",".",".",".",".",7,7,7,7,7,7,7,7,7,7,7,7,7,7,7,7]],[[".",".",".",".",".",".",".",".",".",".",".",".",".",".",".",".",".",".",".",".",".",".",".",".",".",".",".",".",".",".",".","."],[".",".",".",".",".",".",".",".",".",".",".",".",".",".",".",".",".",".",".",".",".",".",".",".",".",".",".",".",".",".",".","."],[7,7,7,7,7,7,7,7,7,7,7,7,7,7,7,7,3,3,3,3,3,3,3,3,3,3,3,3,3,3,3,3],[".",".",".",".",".",".",".",".",".",".",".",".",".",".",".",".",".",".",".",".",".",".",".",".",".",".",".",".",".",".",".","."]],[[".",".",".",".",".",".",".",".",".",".",".",".",".",".",".",".",".",".",".",".",".",".",".",".",".",".",".",".",".",".",".","."],[".",".",".",".",".",".",".",".",".",".",".",".",".",".",".",".",".",".",".",".",".",".",".",".",".",".",".",".",".",".",".","."],[".",".",".",".",".",".",".",".",".",".",".",".",".",".",".",".",2,2,2,2,2,2,2,2,2,2,2,2,2,2,2,2],[3,3,3,3,3,3,3,3,3,3,3,3,3,3,3,3,".",".",".",".",".",".",".",".",".",".",".",".",".",".",".","."]]],"numberofstrings":4,"notes":["G","D","A","E"],"capo":0,"stringnotes":["G2","D2","A1","E1"],"comments":["Intro [repeat seq x2]","Verse 1 [repeat seq x2]","Chorus","","","","Verse 2 & Chorus 2: same as above","Outro (come back in when drums start to pick up, use demo as ref)","","","","When drums drop and all kicks in, repeat this twice (same notes as above just different octaves)",""],"timing":[["W","W","W",null,"W","W","W","W","W","W","W",null,"W","W","W","W","W","W","W",null,"W","W","W",null,"W","W","W",null,"W","W","W"],["W","W",null,"W","W",null,"W","W","W",null,"W","W",null,"W","W",null,"W","W","W","W","W",null,"W",null,"W","W"],["W","W","W","W","W","W","W","W","W","W","W","W","W","W","W","W","W","W","W","W","W","W","W","W","W","W","W","W","W","W","W","W"],["W","W","W","W","W","W","W","W","W","W","W","W","W","W","W","W","W","W","W","W","W","W","W","W","W","W","W","W","W","W","W","W","W","W","W","W"],["W","W","W","W","W","W","W","W","W","W","W","W","W","W","W","W","W","W","W","W","W","W","W","W","W","W","W","W","W","W","W","W"],["W","W","W","W","W","W","W","W","W","W","W","W","W","W","W","W","W","W","W","W","W","W","W","W","W","W","W","W","W",null,"W",null,"W",null,"W","W","W"],[],["W","W","W","W","W","W","W","W","W","W","W","W","W","W","W","W","W","W","W","W","W","W","W","W","W","W","W","W","W","W","W","W"],["W","W","W","W","W","W","W","W","W","W","W","W","W","W","W","W","W","W","W","W","W","W","W","W","W","W","W","W","W","W","W","W"],["W","W","W","W","W","W","W","W","W","W","W","W","W","W","W","W","W","W","W","W","W","W","W","W","W","W","W","W","W","W","W","W"],["W","W","W","W","W","W","W","W","W","W","W","W","W","W","W","W","W","W","W","W","W","W","W","W","W","W","W","W","W","W","W","W"],["W","W","W","W","W","W","W","W","W","W","W","W","W","W","W","W","W","W","W","W","W","W","W","W","W","W","W","W","W","W","W","W"],["W","W","W","W","W","W","W","W","W","W","W","W","W","W","W","W","W","W","W","W","W","W","W","W","W","W","W","W","W","W","W","W"]],"timingvisible":false,"tabcounter":32,"stave":12,"totalstaves":13,"instrument":"4bass","selectedtuning":"4bass","version":"13"}

Member for

11 months
Submitted by Danny Pugh on Sat, 2020-07-04 04:38