Ariel-Tripulación De Osos En Guitarra

Chords

01234567891011121314151617181920212223
E
B
G
D
A
E
B
0 1 2 3 4 5 6 7 8 9 10 11 12 13 14 15 16 17 18 19 20 21 22 23
(/) Slide Up  (\) Slide Down  (h) Hammer On  (p) Pull Off  (b) Bend (r) Release (v) Vibrato

Ritmica Intro

E|--------------------------
B|--------------------------
G|--------------------------
D|--------------------------
A|--9--9--9--9--7--7--7--7--
E|--7--7--7--7--5--5--5--5--

Punteo Intro Guitarra 1

E|--4-----------4-----------4-----------4-----------
B|-----4-----4-----4-----4-----4-----4-----4-----4--
G|--------6-----------6-----------6-----------6-----
D|--------------------------------------------------
A|--------------------------------------------------
E|--------------------------------------------------

Punteo Intro Guitarra 2

E|--16--------------16--------------16--------------16--------------
B|------16------16------16------16------16------16------16------16--
G|----------18--------------18--------------18--------------18------
D|------------------------------------------------------------------
A|------------------------------------------------------------------
E|------------------------------------------------------------------

Coro

E|-----------------------------|--------------------------|-----
B|-----------------------------|--------------------------|-----
G|-----------------------------|--------------------------|-----
D|--6--6--6--7--7--7--9--9--9--|--6--6--6--7--7--7--9--9--|--4--
A|--6--6--6--7--7--7--9--9--9--|--6--6--6--7--7--7--9--9--|--4--
E|--4--4--4--5--5--5--7--7--7--|--4--4--4--5--5--5--7--7--|--2--

Punteo Segunda Parte

E|--2-----------0--------------0--------------0--------------|------------------------------------
B|--------2--------2-----2--------2-----2--------2-----2-----|--12----------12--------------------
G|-----4-----4--------4-----4--------4-----4--------4-----4--|------13--14------13--13/14--9--15--
D|-----------------------------------------------------------|------------------------------------
A|-----------------------------------------------------------|------------------------------------
E|-----------------------------------------------------------|------------------------------------

Parte Final

E|--------------------------------------------------------|---------------9--7v------------------9--7------
B|--9-----7--12--9-----7v--14--14--14--14--14--14--14b14--|---------9----------------------9---------------
G|-----9------------9-------------------------------------|------------9---------9------------9--------9v--
D|--------------------------------------------------------|--9--11------------------9--11------------------
A|--------------------------------------------------------|------------------------------------------------
E|--------------------------------------------------------|------------------------------------------------

							http://www.guitartabcreator.com
Instruments
{"strings":[[[".",".",".",".",".",".",".","."],[".",".",".",".",".",".",".","."],[".",".",".",".",".",".",".","."],[".",".",".",".",".",".",".","."],[9,9,9,9,7,7,7,7],[7,7,7,7,5,5,5,5]],[[4,".",".",".",4,".",".",".",4,".",".",".",4,".",".","."],[".",4,".",4,".",4,".",4,".",4,".",4,".",4,".",4],[".",".",6,".",".",".",6,".",".",".",6,".",".",".",6,"."],[".",".",".",".",".",".",".",".",".",".",".",".",".",".",".","."],[".",".",".",".",".",".",".",".",".",".",".",".",".",".",".","."],[".",".",".",".",".",".",".",".",".",".",".",".",".",".",".","."]],[[16,".",".",".",16,".",".",".",16,".",".",".",16,".",".","."],[".",16,".",16,".",16,".",16,".",16,".",16,".",16,".",16],[".",".",18,".",".",".",18,".",".",".",18,".",".",".",18,"."],[".",".",".",".",".",".",".",".",".",".",".",".",".",".",".","."],[".",".",".",".",".",".",".",".",".",".",".",".",".",".",".","."],[".",".",".",".",".",".",".",".",".",".",".",".",".",".",".","."]],[[".",".",".",".",".",".",".",".",".","|",".",".",".",".",".",".",".",".","|","."],[".",".",".",".",".",".",".",".",".","|",".",".",".",".",".",".",".",".","|","."],[".",".",".",".",".",".",".",".",".","|",".",".",".",".",".",".",".",".","|","."],[6,6,6,7,7,7,9,9,9,"|",6,6,6,7,7,7,9,9,"|",4],[6,6,6,7,7,7,9,9,9,"|",6,6,6,7,7,7,9,9,"|",4],[4,4,4,5,5,5,7,7,7,"|",4,4,4,5,5,5,7,7,"|",2]],[[2,".",".",".",0,".",".",".",".",0,".",".",".",".",0,".",".",".",".","|",".",".",".",".",".",".",".",".",".","."],[".",".",2,".",".",2,".",2,".",".",2,".",2,".",".",2,".",2,".","|",12,".",".",12,".",".",".",".",".","."],[".",4,".",4,".",".",4,".",4,".",".",4,".",4,".",".",4,".",4,"|",".",13,14,".",13,13,"/",14,9,15],[".",".",".",".",".",".",".",".",".",".",".",".",".",".",".",".",".",".",".","|",".",".",".",".",".",".",".",".",".","."],[".",".",".",".",".",".",".",".",".",".",".",".",".",".",".",".",".",".",".","|",".",".",".",".",".",".",".",".",".","."],[".",".",".",".",".",".",".",".",".",".",".",".",".",".",".",".",".",".",".","|",".",".",".",".",".",".",".",".",".","."]],[[".",".",".",".",".",".",".",".",".",".",".",".",".",".",".",".",".","|",".",".",".",".",9,7,"v",".",".",".",".",".",9,7,".","."],[9,".",7,12,9,".",7,"v",14,14,14,14,14,14,14,"b",14,"|",".",".",9,".",".",".",".",".",".",".",9,".",".",".",".","."],[".",9,".",".",".",9,".",".",".",".",".",".",".",".",".",".",".","|",".",".",".",9,".",".",".",9,".",".",".",9,".",".",9,"v"],[".",".",".",".",".",".",".",".",".",".",".",".",".",".",".",".",".","|",9,11,".",".",".",".",".",".",9,11,".",".",".",".",".","."],[".",".",".",".",".",".",".",".",".",".",".",".",".",".",".",".",".","|",".",".",".",".",".",".",".",".",".",".",".",".",".",".",".","."],[".",".",".",".",".",".",".",".",".",".",".",".",".",".",".",".",".","|",".",".",".",".",".",".",".",".",".",".",".",".",".",".",".","."]]],"numberofstrings":6,"notes":["E","B","G","D","A","E","B"],"capo":0,"stringnotes":["E4","B3","G3","D3","A2","E2"],"comments":["Ritmica Intro","Punteo Intro Guitarra 1","Punteo Intro Guitarra 2","Coro","Punteo Segunda Parte","Parte Final"],"timing":[["W","W","W","W","W","W","W","W"],["W","W","W","W","W","W","W","W","W","W","W","W","W","W","W","W"],["W","W","W","W","W","W","W","W","W","W","W","W","W","W","W","W"],["W","W","W","W","W","W","W","W","W",null,"W","W","W","W","W","W","W","W","W","W"],["W","W","W","W","W","W","W","W","W","W","W","W","W","W","W","W","W","W","W",null,"W","W","W","W","W","W",null,"W","W","W"],["W","W","W","W","W","W","W",null,"W","W","W","W","W","W","W","W","W","W","W","W","W","W","W","W",null,"W","W","W","W","W","W","W","W"]],"timingvisible":false,"tabcounter":34,"stave":5,"totalstaves":6,"instrument":"6guitar","selectedtuning":"6_standard","version":"13"}

Member for

2 years 6 months
Submitted by Danny Celin on Sun, 2020-10-18 21:11