Michael Jackson - Billie Jean (Cover by DaniGuitarCovers)

01234567891011121314151617181920212223
E
B
G
D
A
E
B
0 1 2 3 4 5 6 7 8 9 10 11 12 13 14 15 16 17 18 19 20 21 22 23
(/) Slide Up  (\) Slide Down  (h) Hammer On  (p) Pull Off  (b) Bend (r) Release (v) Vibrato

Intro

E|--2--4--5--4--2--4--5--4--
B|--2--4--5--4--2--4--5--4--
G|--------------------------
D|--------------------------
A|--------------------------
E|--------------------------

Verse

E|--------------------------------------------------------------------------------------------------------------------
B|--------------------------------------------------------------------------------------------------------------------
G|--4/6--6--4/6--6--4--2--4--6--x--x--4\2/6v--4/6--6--4/6--6--4--2--4--6--4--2--1-------------------------------------
D|---------------------------------------------------------------------------------4--x--x--4/6\4--x--x--4/6\4--x--x--
A|--------------------------------------------------------------------------------------------------------------------
E|--------------------------------------------------------------------------------------------------------------------



E|---------------------------------------------------------------------
B|---------------------------------------------------------------------
G|--------------2--2/4\2-----------------------------------------------
D|--4/6\4--2h4------------6--4--x--x--4/6\4--x--x--4/6\4--x--x--4/6\4--
A|---------------------------------------------------------------------
E|---------------------------------------------------------------------



E|--------------------------------------------------------------------------------------------------------------------
B|--------------------------------------------------------------------------------------------------------------------
G|--4/6--6--4/6--6--4--2--4--6--x--x--4\2/6v--4/6--6--4/6--6--4--2--4--6--4--2--1-------------------------------------
D|---------------------------------------------------------------------------------4--x--x--4/6\4--x--x--4/6\4--x--x--
A|--------------------------------------------------------------------------------------------------------------------
E|--------------------------------------------------------------------------------------------------------------------



E|---------------------
B|---------------------
G|---------6--4--2--1--
D|--4/6\4--------------
A|---------------------
E|---------------------

Pre-Chorus

E|-----------------------------------------------------------------------------------------------
B|-----------------------10------10---------------------------------------------------12b14--10--
G|--9--11--9--11--9--11------11------11--11--9--11--9--11--11--11--11--11--11b13--11-------------
D|-----------------------------------------------------------------------------------------------
A|-----------------------------------------------------------------------------------------------
E|-----------------------------------------------------------------------------------------------



E|----------------------------------------------------------------------------------------------------
B|---------------------------10-----------------------------------------------------------------------
G|--9--11--9--11--9--11--11------11--11--9--11--6--7--7--7--9--11--11--10--10--10--10--10--11/13--11--
D|----------------------------------------------------------------------------------------------------
A|----------------------------------------------------------------------------------------------------
E|----------------------------------------------------------------------------------------------------

Chorus

E|--------------------------------------------------------------------------------------------------------------------------
B|------------------------------------------------------------------------------------------12/14--12---------------12b14v--
G|--11--11--9-------11--11--9-------11--11--11--9-------11--14--14/16--14--13--11v--11--11-------------11-------------------
D|-------------11v-------------11v-----------------11v-----------------------------------------------------12--11v----------
A|--------------------------------------------------------------------------------------------------------------------------
E|--------------------------------------------------------------------------------------------------------------------------



E|--------------------------------------------------------------
B|--------------------------------------12/14--12---------------
G|--11--14--14/16--14--13--11v--11--11-------------11-----------
D|-----------------------------------------------------12--11v--
A|--------------------------------------------------------------
E|--------------------------------------------------------------

Verse 2

E|-------------------------------------------------------------------------------------------------------------------
B|-------------------------------------------------------------------------------------------------------------------
G|--4/6--6--4/6--6--4--2--4--6--x--x--4\2/6--4/6--6--4/6--6--4--2--4--6--4--2--1-------------------------------------
D|--------------------------------------------------------------------------------4--x--x--4/6\4--x--x--4/6\4--x--x--
A|-------------------------------------------------------------------------------------------------------------------
E|-------------------------------------------------------------------------------------------------------------------



E|-------------------------------------------------------------------------------------------
B|--------------------------------------------------------12--10--9h10--12--10--9h10--17b19--
G|--------------2--2/4\2--------------7--6---------------------------------------------------
D|--4/6\4--2h4------------6--4--4--4--------7--6/4-------------------------------------------
A|--------------------------------------------------5--4-------------------------------------
E|-------------------------------------------------------------------------------------------



E|-------------------------------------------------------------------------------------------------------------------
B|--12/14--14--12/14--14--12--10--12--14--x--x--12\10/14--12/14--14--12/14--14--12--10--9----------------------------
G|-----------------------------------------------------------------------------------------11--x--x--11/13\11--x--x--
D|-------------------------------------------------------------------------------------------------------------------
A|-------------------------------------------------------------------------------------------------------------------
E|-------------------------------------------------------------------------------------------------------------------



E|-------------------------------------------
B|----------------------------14--12--10--9--
G|--11/13\11--x--x--11/13\11-----------------
D|-------------------------------------------
A|-------------------------------------------
E|-------------------------------------------

Pre-Chorus 2

E|-------------------------------17-------------------------------------------------------19b21--17--
B|--17--19--17--19--17--19v--19------19--19--17--19v--17--19--19v--19--19--19--19b21--19-------------
G|---------------------------------------------------------------------------------------------------
D|---------------------------------------------------------------------------------------------------
A|---------------------------------------------------------------------------------------------------
E|---------------------------------------------------------------------------------------------------



E|-------------------------------17----------------------------------------------------------------------------------
B|--17--19--17--19--17--19v--19------19--19--17--19--14--15--15--15--17--19v--19--18--18--18--18--18--19--19b21--19--
G|-------------------------------------------------------------------------------------------------------------------
D|-------------------------------------------------------------------------------------------------------------------
A|-------------------------------------------------------------------------------------------------------------------
E|-------------------------------------------------------------------------------------------------------------------

Chorus 2

E|-------------------------------------------------------------17--17b19--16---------------19/21--19----------------------------
B|--19--19--17-------19--19--17-------19--19--19--17-------19-----------------19v--19--19-------------19-----------19--17-------
G|--------------18v--------------18v------------------18v-------------------------------------------------19--18v----------18v--
D|------------------------------------------------------------------------------------------------------------------------------
A|------------------------------------------------------------------------------------------------------------------------------
E|------------------------------------------------------------------------------------------------------------------------------



E|------------------------------------------------------------17--17b19--16---------------19b21--19---------------
B|--19--19--17-------19--19--17-------19--19--19--17------19-----------------19v--19--19-------------19-----------
G|--------------18v--------------18v------------------18-------------------------------------------------19--18v--
D|----------------------------------------------------------------------------------------------------------------
A|----------------------------------------------------------------------------------------------------------------
E|----------------------------------------------------------------------------------------------------------------



E|----------17--17b19--16---------------19b21--19---------------
B|--19--19-----------------19v--19--19-------------19-----------
G|-----------------------------------------------------19--18v--
D|--------------------------------------------------------------
A|--------------------------------------------------------------
E|--------------------------------------------------------------

							http://www.guitartabcreator.com
Chords

Instruments
{"strings":[[[2,4,5,4,2,4,5,4],[2,4,5,4,2,4,5,4],[".","_","_","_","_","_","_","_"],[".","_","_","_","_","_","_","_"],[".","_","_","_","_","_","_","_"],[".","_","_","_","_","_","_","_"]],[[".",".",".",".",".",".",".",".",".",".",".",".","_","_",".",".",".",".",".",".",".",".",".",".",".",".",".",".",".",".",".",".",".",".",".",".","_","_",".",".",".",".",".","_","_",".",".",".",".",".","_","_"],[".",".",".",".",".",".",".",".",".",".",".",".","_","_",".",".",".",".",".",".",".",".",".",".",".",".",".",".",".",".",".",".",".",".",".",".","_","_",".",".",".",".",".","_","_",".",".",".",".",".","_","_"],[4,"/",6,6,4,"/",6,6,4,2,4,6,"x","x",4,"\\",2,"/",6,"v",4,"/",6,6,4,"/",6,6,4,2,4,6,4,2,1,".","_","_",".",".",".",".",".","_","_",".",".",".",".",".","_","_"],[".",".",".",".",".",".",".",".",".",".",".",".","_","_",".",".",".",".",".",".",".",".",".",".",".",".",".",".",".",".",".",".",".",".",".",4,"x","x",4,"/",6,"\\",4,"x","x",4,"/",6,"\\",4,"x","x"],[".",".",".",".",".",".",".",".",".",".",".",".","_","_",".",".",".",".",".",".",".",".",".",".",".",".",".",".",".",".",".",".",".",".",".",".","_","_",".",".",".",".",".","_","_",".",".",".",".",".","_","_"],[".",".",".",".",".",".",".",".",".",".",".",".","_","_",".",".",".",".",".",".",".",".",".",".",".",".",".",".",".",".",".",".",".",".",".",".","_","_",".",".",".",".",".","_","_",".",".",".",".",".","_","_"]],[[".",".",".",".",".",".",".",".",".",".",".",".",".",".",".",".","_","_",".",".",".",".",".","_","_",".",".",".",".",".","_","_",".",".",".",".","."],[".",".",".",".",".",".",".",".",".",".",".",".",".",".",".",".","_","_",".",".",".",".",".","_","_",".",".",".",".",".","_","_",".",".",".",".","."],[".",".",".",".",".",".",".",".",2,2,"/",4,"\\",2,".",".","_","_",".",".",".",".",".","_","_",".",".",".",".",".","_","_",".",".",".",".","."],[4,"/",6,"\\",4,2,"h",4,".",".",".",".",".",".",6,4,"x","x",4,"/",6,"\\",4,"x","x",4,"/",6,"\\",4,"x","x",4,"/",6,"\\",4],[".",".",".",".",".",".",".",".",".",".",".",".",".",".",".",".","_","_",".",".",".",".",".","_","_",".",".",".",".",".","_","_",".",".",".",".","."],[".",".",".",".",".",".",".",".",".",".",".",".",".",".",".",".","_","_",".",".",".",".",".","_","_",".",".",".",".",".","_","_",".",".",".",".","."]],[[".",".",".",".",".",".",".",".",".",".",".",".","_","_",".",".",".",".",".",".",".",".",".",".",".",".",".",".",".",".",".",".",".",".",".",".","_","_",".",".",".",".",".","_","_",".",".",".",".",".","_","_"],[".",".",".",".",".",".",".",".",".",".",".",".","_","_",".",".",".",".",".",".",".",".",".",".",".",".",".",".",".",".",".",".",".",".",".",".","_","_",".",".",".",".",".","_","_",".",".",".",".",".","_","_"],[4,"/",6,6,4,"/",6,6,4,2,4,6,"x","x",4,"\\",2,"/",6,"v",4,"/",6,6,4,"/",6,6,4,2,4,6,4,2,1,".","_","_",".",".",".",".",".","_","_",".",".",".",".",".","_","_"],[".",".",".",".",".",".",".",".",".",".",".",".","_","_",".",".",".",".",".",".",".",".",".",".",".",".",".",".",".",".",".",".",".",".",".",4,"x","x",4,"/",6,"\\",4,"x","x",4,"/",6,"\\",4,"x","x"],[".",".",".",".",".",".",".",".",".",".",".",".","_","_",".",".",".",".",".",".",".",".",".",".",".",".",".",".",".",".",".",".",".",".",".",".","_","_",".",".",".",".",".","_","_",".",".",".",".",".","_","_"],[".",".",".",".",".",".",".",".",".",".",".",".","_","_",".",".",".",".",".",".",".",".",".",".",".",".",".",".",".",".",".",".",".",".",".",".","_","_",".",".",".",".",".","_","_",".",".",".",".",".","_","_"]],[[".",".",".",".",".",".",".",".","."],[".",".",".",".",".",".",".",".","."],[".",".",".",".",".",6,4,2,1],[4,"/",6,"\\",4,".",".",".","."],[".",".",".",".",".",".",".",".","."],[".",".",".",".",".",".",".",".","."]],[[".",".",".",".",".",".",".",".",".",".",".",".",".",".",".",".",".",".",".",".",".",".",".",".",".",".","."],[".",".",".",".",".",".",10,".",10,".",".",".",".",".",".",".",".",".",".",".",".",".",".",12,"b",14,10],[9,11,9,11,9,11,".",11,".",11,11,9,11,9,11,11,11,11,11,11,"b",13,11,".",".",".","."],[".",".",".",".",".",".",".",".",".",".",".",".",".",".",".",".",".",".",".",".",".",".",".",".",".",".","."],[".",".",".",".",".",".",".",".",".",".",".",".",".",".",".",".",".",".",".",".",".",".",".",".",".",".","."],[".",".",".",".",".",".",".",".",".",".",".",".",".",".",".",".",".",".",".",".",".",".",".",".",".",".","."]],[[".",".",".",".",".",".",".",".",".",".",".",".",".",".",".",".",".",".",".",".",".",".",".",".",".",".",".","."],[".",".",".",".",".",".",".",10,".",".",".",".",".",".",".",".",".",".",".",".",".",".",".",".",".",".",".","."],[9,11,9,11,9,11,11,".",11,11,9,11,6,7,7,7,9,11,11,10,10,10,10,10,11,"/",13,11],[".",".",".",".",".",".",".",".",".",".",".",".",".",".",".",".",".",".",".",".",".",".",".",".",".",".",".","."],[".",".",".",".",".",".",".",".",".",".",".",".",".",".",".",".",".",".",".",".",".",".",".",".",".",".",".","."],[".",".",".",".",".",".",".",".",".",".",".",".",".",".",".",".",".",".",".",".",".",".",".",".",".",".",".","."]],[[".",".",".",".",".",".",".",".",".",".",".",".",".",".",".",".",".",".",".",".",".",".",".",".",".",".",".",".",".",".",".",".",".",".",".",".",".",".","."],[".",".",".",".",".",".",".",".",".",".",".",".",".",".",".",".",".",".",".",".",".",".",".",".",".",".",".",12,"/",14,12,".",".",".",".",12,"b",14,"v"],[11,11,9,".",".",11,11,9,".",".",11,11,11,9,".",".",11,14,14,"/",16,14,13,11,"v",11,11,".",".",".",".",11,".",".",".",".",".",".","."],[".",".",".",11,"v",".",".",".",11,"v",".",".",".",".",11,"v",".",".",".",".",".",".",".",".",".",".",".",".",".",".",".",".",12,11,"v",".",".",".","."],[".",".",".",".",".",".",".",".",".",".",".",".",".",".",".",".",".",".",".",".",".",".",".",".",".",".",".",".",".",".",".",".",".",".",".",".",".",".","."],[".",".",".",".",".",".",".",".",".",".",".",".",".",".",".",".",".",".",".",".",".",".",".",".",".",".",".",".",".",".",".",".",".",".",".",".",".",".","."]],[[".",".",".",".",".",".",".",".",".",".",".",".",".",".",".",".",".",".","."],[".",".",".",".",".",".",".",".",".",".",".",12,"/",14,12,".",".",".","."],[11,14,14,"/",16,14,13,11,"v",11,11,".",".",".",".",11,".",".","."],[".",".",".",".",".",".",".",".",".",".",".",".",".",".",".",".",12,11,"v"],[".",".",".",".",".",".",".",".",".",".",".",".",".",".",".",".",".",".","."],[".",".",".",".",".",".",".",".",".",".",".",".",".",".",".",".",".",".","."]],[[".",".",".",".",".",".",".",".",".",".",".",".","_","_",".",".",".",".",".",".",".",".",".",".",".",".",".",".",".",".",".",".",".",".",".","_","_",".",".",".",".",".","_","_",".",".",".",".",".","_","_"],[".",".",".",".",".",".",".",".",".",".",".",".","_","_",".",".",".",".",".",".",".",".",".",".",".",".",".",".",".",".",".",".",".",".",".","_","_",".",".",".",".",".","_","_",".",".",".",".",".","_","_"],[4,"/",6,6,4,"/",6,6,4,2,4,6,"x","x",4,"\\",2,"/",6,4,"/",6,6,4,"/",6,6,4,2,4,6,4,2,1,".","_","_",".",".",".",".",".","_","_",".",".",".",".",".","_","_"],[".",".",".",".",".",".",".",".",".",".",".",".","_","_",".",".",".",".",".",".",".",".",".",".",".",".",".",".",".",".",".",".",".",".",4,"x","x",4,"/",6,"\\",4,"x","x",4,"/",6,"\\",4,"x","x"],[".",".",".",".",".",".",".",".",".",".",".",".","_","_",".",".",".",".",".",".",".",".",".",".",".",".",".",".",".",".",".",".",".",".",".","_","_",".",".",".",".",".","_","_",".",".",".",".",".","_","_"],[".",".",".",".",".",".",".",".",".",".",".",".","_","_",".",".",".",".",".",".",".",".",".",".",".",".",".",".",".",".",".",".",".",".",".","_","_",".",".",".",".",".","_","_",".",".",".",".",".","_","_"]],[[".",".",".",".",".",".",".",".",".",".",".",".",".",".",".",".",".",".",".",".",".",".",".",".",".",".",".",".",".",".",".",".",".",".",".",".",".",".","."],[".",".",".",".",".",".",".",".",".",".",".",".",".",".",".",".",".",".",".",".",".",".",".",".",".",".",12,10,9,"h",10,12,10,9,"h",10,17,"b",19],[".",".",".",".",".",".",".",".",2,2,"/",4,"\\",2,".",".",".",".",7,6,".",".",".",".",".",".",".",".",".",".",".",".",".",".",".",".",".",".","."],[4,"/",6,"\\",4,2,"h",4,".",".",".",".",".",".",6,4,4,4,".",".",7,6,"/",4,".",".",".",".",".",".",".",".",".",".",".",".",".",".","."],[".",".",".",".",".",".",".",".",".",".",".",".",".",".",".",".",".",".",".",".",".",".",".",".",5,4,".",".",".",".",".",".",".",".",".",".",".",".","."],[".",".",".",".",".",".",".",".",".",".",".",".",".",".",".",".",".",".",".",".",".",".",".",".",".",".",".",".",".",".",".",".",".",".",".",".",".",".","."]],[[".",".",".",".",".",".",".",".",".",".",".",".","_","_",".",".",".",".",".",".",".",".",".",".",".",".",".",".",".",".",".","_","_",".",".",".",".",".","_","_"],[12,"/",14,14,12,"/",14,14,12,10,12,14,"x","x",12,"\\",10,"/",14,12,"/",14,14,12,"/",14,14,12,10,9,".","_","_",".",".",".",".",".","_","_"],[".",".",".",".",".",".",".",".",".",".",".",".","_","_",".",".",".",".",".",".",".",".",".",".",".",".",".",".",".",".",11,"x","x",11,"/",13,"\\",11,"x","x"],[".",".",".",".",".",".",".",".",".",".",".",".","_","_",".",".",".",".",".",".",".",".",".",".",".",".",".",".",".",".",".","_","_",".",".",".",".",".","_","_"],[".",".",".",".",".",".",".",".",".",".",".",".","_","_",".",".",".",".",".",".",".",".",".",".",".",".",".",".",".",".",".","_","_",".",".",".",".",".","_","_"],[".",".",".",".",".",".",".",".",".",".",".",".","_","_",".",".",".",".",".",".",".",".",".",".",".",".",".",".",".",".",".","_","_",".",".",".",".",".","_","_"]],[[".",".",".",".",".","_","_",".",".",".",".",".",".",".",".","."],[".",".",".",".",".","_","_",".",".",".",".",".",14,12,10,9],[11,"/",13,"\\",11,"x","x",11,"/",13,"\\",11,".",".",".","."],[".",".",".",".",".","_","_",".",".",".",".",".",".",".",".","."],[".",".",".",".",".","_","_",".",".",".",".",".",".",".",".","."],[".",".",".",".",".","_","_",".",".",".",".",".",".",".",".","."]],[[".",".",".",".",".",".",".",".",17,".",".",".",".",".",".",".",".",".",".",".",".",".",".",".",".",19,"b",21,17],[17,19,17,19,17,19,"v",19,".",19,19,17,19,"v",17,19,19,"v",19,19,19,19,"b",21,19,".",".",".","."],[".",".",".",".",".",".",".",".",".",".",".",".",".",".",".",".",".",".",".",".",".",".",".",".",".",".",".",".","."],[".",".",".",".",".",".",".",".",".",".",".",".",".",".",".",".",".",".",".",".",".",".",".",".",".",".",".",".","."],[".",".",".",".",".",".",".",".",".",".",".",".",".",".",".",".",".",".",".",".",".",".",".",".",".",".",".",".","."],[".",".",".",".",".",".",".",".",".",".",".",".",".",".",".",".",".",".",".",".",".",".",".",".",".",".",".",".","."]],[[".",".",".",".",".",".",".",".",17,".",".",".",".",".",".",".",".",".",".",".",".",".",".",".",".",".",".",".",".",".","."],[17,19,17,19,17,19,"v",19,".",19,19,17,19,14,15,15,15,17,19,"v",19,18,18,18,18,18,19,19,"b",21,19],[".",".",".",".",".",".",".",".",".",".",".",".",".",".",".",".",".",".",".",".",".",".",".",".",".",".",".",".",".",".","."],[".",".",".",".",".",".",".",".",".",".",".",".",".",".",".",".",".",".",".",".",".",".",".",".",".",".",".",".",".",".","."],[".",".",".",".",".",".",".",".",".",".",".",".",".",".",".",".",".",".",".",".",".",".",".",".",".",".",".",".",".",".","."],[".",".",".",".",".",".",".",".",".",".",".",".",".",".",".",".",".",".",".",".",".",".",".",".",".",".",".",".",".",".","."]],[[".",".",".",".",".",".",".",".",".",".",".",".",".",".",".",".",".",17,17,"b",19,16,".",".",".",".",19,"/",21,19,".",".",".",".",".",".",".","."],[19,19,17,".",".",19,19,17,".",".",19,19,19,17,".",".",19,".",".",".",".",".",19,"v",19,19,".",".",".",".",19,".",".",".",19,17,".","."],[".",".",".",18,"v",".",".",".",18,"v",".",".",".",".",18,"v",".",".",".",".",".",".",".",".",".",".",".",".",".",".",".",19,18,"v",".",".",18,"v"],[".",".",".",".",".",".",".",".",".",".",".",".",".",".",".",".",".",".",".",".",".",".",".",".",".",".",".",".",".",".",".",".",".",".",".",".",".","."],[".",".",".",".",".",".",".",".",".",".",".",".",".",".",".",".",".",".",".",".",".",".",".",".",".",".",".",".",".",".",".",".",".",".",".",".",".","."],[".",".",".",".",".",".",".",".",".",".",".",".",".",".",".",".",".",".",".",".",".",".",".",".",".",".",".",".",".",".",".",".",".",".",".",".",".","."]],[[".",".",".",".",".",".",".",".",".",".",".",".",".",".",".",".",17,17,"b",19,16,".",".",".",".",19,"b",21,19,".",".",".","."],[19,19,17,".",".",19,19,17,".",".",19,19,19,17,".",19,".",".",".",".",".",19,"v",19,19,".",".",".",".",19,".",".","."],[".",".",".",18,"v",".",".",".",18,"v",".",".",".",".",18,".",".",".",".",".",".",".",".",".",".",".",".",".",".",".",19,18,"v"],[".",".",".",".",".",".",".",".",".",".",".",".",".",".",".",".",".",".",".",".",".",".",".",".",".",".",".",".",".",".",".",".","."],[".",".",".",".",".",".",".",".",".",".",".",".",".",".",".",".",".",".",".",".",".",".",".",".",".",".",".",".",".",".",".",".","."],[".",".",".",".",".",".",".",".",".",".",".",".",".",".",".",".",".",".",".",".",".",".",".",".",".",".",".",".",".",".",".",".","."]],[[".",".",17,17,"b",19,16,".",".",".",".",19,"b",21,19,".",".",".","."],[19,19,".",".",".",".",".",19,"v",19,19,".",".",".",".",19,".",".","."],[".",".",".",".",".",".",".",".",".",".",".",".",".",".",".",".",19,18,"v"],[".",".",".",".",".",".",".",".",".",".",".",".",".",".",".",".",".",".","."],[".",".",".",".",".",".",".",".",".",".",".",".",".",".",".",".",".",".","."],[".",".",".",".",".",".",".",".",".",".",".",".",".",".",".",".",".",".","."]]],"numberofstrings":6,"notes":["E","B","G","D","A","E","B"],"capo":0,"stringnotes":["E4","B3","G3","D3","A2","E2"],"comments":["Intro","Verse","","","","Pre-Chorus","","Chorus","","Verse 2","","","","Pre-Chorus 2","","Chorus 2","",""],"timing":[["W","W","W","W","W","W","W","W","W"],["W",null,"W","W","W",null,"W","W","W","W","W","W","W","W","W",null,"W",null,"W",null,"W",null,"W","W","W",null,"W","W","W","W","W","W","W","W","W","W","W","W","W",null,"W",null,"W","W","W","W",null,"W",null,"W","W","W"],["W",null,"W",null,"W","W",null,"W","W","W",null,"W",null,"W","W","W","W","W","W",null,"W",null,"W","W","W","W",null,"W",null,"W","W","W","W",null,"W",null,"W"],["W",null,"W","W","W",null,"W","W","W","W","W","W","W","W","W",null,"W",null,"W",null,"W",null,"W","W","W",null,"W","W","W","W","W","W","W","W","W","W","W","W","W",null,"W",null,"W","W","W","W",null,"W",null,"W","W","W"],["W",null,"W",null,"W","W","W","W","W"],["W","W","W","W","W","W","W","W","W","W","W","W","W","W","W","W","W","W","W","W",null,"W","W","W",null,"W","W"],["W","W","W","W","W","W","W","W","W","W","W","W","W","W","W","W","W","W","W","W","W","W","W","W","W",null,"W","W"],["W","W","W","W",null,"W","W","W","W",null,"W","W","W","W","W",null,"W","W","W",null,"W","W","W","W",null,"W","W","W",null,"W","W","W","W","W",null,"W",null,"W"],["W","W","W",null,"W","W","W","W",null,"W","W","W",null,"W","W","W","W","W"],["W",null,"W","W","W",null,"W","W","W","W","W","W","W","W","W",null,"W",null,"W","W",null,"W","W","W",null,"W","W","W","W","W","W","W","W","W","W","W","W","W",null,"W",null,"W","W","W","W",null,"W",null,"W","W","W"],["W",null,"W",null,"W","W",null,"W","W","W",null,"W",null,"W","W","W","W","W","W","W","W","W",null,"W","W","W","W","W","W",null,"W","W","W","W",null,"W","W",null,"W"],["W",null,"W","W","W",null,"W","W","W","W","W","W","W","W","W",null,"W",null,"W","W",null,"W","W","W",null,"W","W","W","W","W","W","W","W","W",null,"W",null,"W","W","W"],["W",null,"W",null,"W","W","W","W",null,"W",null,"W","W","W","W","W"],["W","W","W","W","W","W",null,"W","W","W","W","W","W",null,"W","W","W",null,"W","W","W","W",null,"W","W","W",null,"W","W","W"],["W","W","W","W","W","W",null,"W","W","W","W","W","W","W","W","W","W","W","W",null,"W","W","W","W","W","W","W","W",null,"W","W"],["W","W","W","W",null,"W","W","W","W",null,"W","W","W","W","W",null,"W","W","W",null,"W","W","W",null,"W","W","W",null,"W","W","W","W","W",null,"W","W","W"],["W","W","W","W",null,"W","W","W","W",null,"W","W","W","W","W","W","W","W",null,"W","W","W",null,"W","W","W",null,"W","W","W","W","W"],["W","W","W","W",null,"W","W","W",null,"W","W","W",null,"W","W","W","W","W"]],"timingvisible":false,"tabcounter":19,"stave":17,"totalstaves":18,"instrument":"6guitar","selectedtuning":"6_standard","version":"13"}

Member for

6 months
About Me
im a guitarrist
Submitted by DaniGuitarCovers on Sun, 2021-11-14 23:28