Kodaline - All I Want by DaniGuitarCovers

01234567891011121314151617181920212223
E
B
G
D
A
E
B
0 1 2 3 4 5 6 7 8 9 10 11 12 13 14 15 16 17 18 19 20 21 22 23
(/) Slide Up  (\) Slide Down  (h) Hammer On  (p) Pull Off  (b) Bend (r) Release (v) Vibrato

Stave 1:

E|-------------------------------------------------------------------------------------------------------------------------------
B|--5--5--5--1/6--6--5v--5--5--5--3--1--10--10--10--8/10\8--5--6\5\3--3--3--3v--3--3--1--1--5--5--5--1/6--6--5--1/5--5--5--3--1--
G|-------------------------------------------------------------------------------------------------------------------------------
D|-------------------------------------------------------------------------------------------------------------------------------
A|-------------------------------------------------------------------------------------------------------------------------------
E|-------------------------------------------------------------------------------------------------------------------------------

Stave 2:

E|----------------------------------------------------
B|--10--10--10--8/10--8--5--6\5--3--3--3v--1/3\1--1v--
G|----------------------------------------------------
D|----------------------------------------------------
A|----------------------------------------------------
E|----------------------------------------------------

Stave 3:

E|------------------------------------------------------------------------------------------------------------------------
B|--1/5--8--10--8--5/8--10--8--8--6/5--3/1--------------5/8--10--8--10/13--12--10--8--8--6\5--3/1--------------1/5--6--5--
G|------------------------------------------7--5--5--4---------------------------------------------7--5--5--4-------------
D|------------------------------------------------------------------------------------------------------------------------
A|------------------------------------------------------------------------------------------------------------------------
E|------------------------------------------------------------------------------------------------------------------------

Stave 4:

E|--------------------------------------------
B|--5--3\1--10--8/10\8--5--6\5--3v--1/3\1--1--
G|--------------------------------------------
D|--------------------------------------------
A|--------------------------------------------
E|--------------------------------------------

Stave 5:

E|------------------------------------------------------------------------------
B|--5--5--5--1/6--6--5v--5--5--5--3--1--10--10--8/10\8--5--6\5--3--3--1/5\3--1--
G|------------------------------------------------------------------------------
D|------------------------------------------------------------------------------
A|------------------------------------------------------------------------------
E|------------------------------------------------------------------------------

Stave 6:

E|--1/5--8--10--8--5/8--10--8--8--6\5--3\1--1--------------5/8--10--8--10/13--12--10--8--8--6\5--3\1---------------
B|---------------------------------------------7--5--5--4---------------------------------------------7--5--5--4v--
G|-----------------------------------------------------------------------------------------------------------------
D|-----------------------------------------------------------------------------------------------------------------
A|-----------------------------------------------------------------------------------------------------------------
E|-----------------------------------------------------------------------------------------------------------------

Stave 7:

E|--5--5--6--7--7--8--7--5--5--------------------------------------------------------------------------------------------------------
B|--6-----------8--------6-----6-----------------------------------------------------12------12------12------13------13------13------
G|--7-----------7--------7--------7--12------12------12------14------14------14------------------------------------------------------
D|---------------------------------------12------12------12------12------12------12------12------12------12------12------12------12--
A|-----------------------------------------------------------------------------------------------------------------------------------
E|-----------------------------------------------------------------------------------------------------------------------------------

Stave 8:

E|--------------------------12------12------12------13------13------13------15v--
B|--15------15------15-----------------------------------------------------------
G|-------------------------------------------------------------------------------
D|------12------12------12------12------12------12------12------12------12-------
A|-------------------------------------------------------------------------------
E|-------------------------------------------------------------------------------

Stave 9:

E|--------------------------------------------------------------------------------------------------------------------------------------------------------
B|--13/17--20--22--20--13/17--20--22--20--13/17--20--22--20--17--15--15--13/15--17--20--22--20--13/15--17--20--22--20--13/15--17--20--22--20--17--15--15--
G|--------------------------------------------------------------------------------------------------------------------------------------------------------
D|--------------------------------------------------------------------------------------------------------------------------------------------------------
A|--------------------------------------------------------------------------------------------------------------------------------------------------------
E|--------------------------------------------------------------------------------------------------------------------------------------------------------

Stave 10:

E|----------------------------------------------------------------------------------------------------------------------------------12------12------12------12------12------12------12------12------
B|--13------13------13------13------13------13------13------13------15------15------15------15------15------15------15------15----------------------------------------------------------------------
G|------12------12------12------12------12------12------12------12------12------12------12------12------12------12------12------12------12------12------12------12------12------12------12------12--
D|--------------------------------------------------------------------------------------------------------------------------------------------------------------------------------------------------
A|--------------------------------------------------------------------------------------------------------------------------------------------------------------------------------------------------
E|--------------------------------------------------------------------------------------------------------------------------------------------------------------------------------------------------

Stave 11:

E|----------------------------------------------------------------------------------------------------------------------------------
B|--15------15------15------15------13------13------13------13------12------12------12------12------13------13------13------13------
G|------12------12------12------12------12------12------12------12------12------12------12------12------12------12------12------12--
D|----------------------------------------------------------------------------------------------------------------------------------
A|----------------------------------------------------------------------------------------------------------------------------------
E|----------------------------------------------------------------------------------------------------------------------------------

Stave 12:

E|--------------15----------------------15----------------------15----------------------15----------
B|------13--------------13------13--------------13------13--------------13------13--------------13--
G|--12------12------12------12------12------12------12------12------12------12------12------12------
D|--------------------------------------------------------------------------------------------------
A|--------------------------------------------------------------------------------------------------
E|--------------------------------------------------------------------------------------------------

Stave 13:

E|--------------17----------------------17----------------------17----------------------19--
B|------13--------------13------13--------------13------13--------------13------13----------
G|--14------14------14------14------14------14------14------14------14------14------14------
D|------------------------------------------------------------------------------------------
A|------------------------------------------------------------------------------------------
E|------------------------------------------------------------------------------------------

Stave 14:

E|--------------20----------------------20----------------------20----------------------20----------
B|------17--------------17------17--------------17------17--------------17------17--------------17--
G|--17------17------17------17------17------17------17------17------17------17------17------17------
D|--------------------------------------------------------------------------------------------------
A|--------------------------------------------------------------------------------------------------
E|--------------------------------------------------------------------------------------------------

Stave 15:

E|------19------19------19------17------17------17------------------------------------------------------
B|------------------------------------------------------20------20------20------18------18------18--17--
G|--17------17------17------17------17------17------17------17------17------17------17------17------17--
D|------------------------------------------------------------------------------------------------------
A|------------------------------------------------------------------------------------------------------
E|------------------------------------------------------------------------------------------------------

Stave 16:

E|----------------------------------------------------------------------------------------------------------
B|--5/8--10--8--5/8--10--8--8--6\5--3\1--------------5/8--10--8--10/13--12--10--8--8--6\5--3\1--------------
G|---------------------------------------7--5--5--4---------------------------------------------7--5--5--4--
D|----------------------------------------------------------------------------------------------------------
A|----------------------------------------------------------------------------------------------------------
E|----------------------------------------------------------------------------------------------------------

Stave 17:

E|------------------
B|--1/5--5/6/8--5v--
G|------------------
D|------------------
A|------------------
E|------------------

							http://www.guitartabcreator.com
Chords

Tab Notes
Kodaline - All I Want by DaniGuitarCovera
Instruments
{"strings":[[[".",".",".",".",".",".",".",".",".",".",".",".",".",".",".",".",".",".",".",".",".",".",".",".",".",".",".",".",".",".",".",".",".",".",".",".",".",".",".",".",".",".",".",".",".",".",".",".",".",".","."],[5,5,5,1,"/",6,6,5,"v",5,5,5,3,1,10,10,10,8,"/",10,"\\",8,5,6,"\\",5,"\\",3,3,3,3,"v",3,3,1,1,5,5,5,1,"/",6,6,5,1,"/",5,5,5,3,1],[".",".",".",".",".",".",".",".",".",".",".",".",".",".",".",".",".",".",".",".",".",".",".",".",".",".",".",".",".",".",".",".",".",".",".",".",".",".",".",".",".",".",".",".",".",".",".",".",".",".","."],[".",".",".",".",".",".",".",".",".",".",".",".",".",".",".",".",".",".",".",".",".",".",".",".",".",".",".",".",".",".",".",".",".",".",".",".",".",".",".",".",".",".",".",".",".",".",".",".",".",".","."],[".",".",".",".",".",".",".",".",".",".",".",".",".",".",".",".",".",".",".",".",".",".",".",".",".",".",".",".",".",".",".",".",".",".",".",".",".",".",".",".",".",".",".",".",".",".",".",".",".",".","."],[".",".",".",".",".",".",".",".",".",".",".",".",".",".",".",".",".",".",".",".",".",".",".",".",".",".",".",".",".",".",".",".",".",".",".",".",".",".",".",".",".",".",".",".",".",".",".",".",".",".","."]],[[".",".",".",".",".",".",".",".",".",".",".",".",".",".",".",".",".",".",".",".",".","."],[10,10,10,8,"/",10,8,5,6,"\\",5,3,3,3,"v",1,"/",3,"\\",1,1,"v"],[".",".",".",".",".",".",".",".",".",".",".",".",".",".",".",".",".",".",".",".",".","."],[".",".",".",".",".",".",".",".",".",".",".",".",".",".",".",".",".",".",".",".",".","."],[".",".",".",".",".",".",".",".",".",".",".",".",".",".",".",".",".",".",".",".",".","."],[".",".",".",".",".",".",".",".",".",".",".",".",".",".",".",".",".",".",".",".",".","."]],[[".",".",".",".",".",".",".",".",".",".",".",".",".",".",".",".",".",".",".",".",".",".",".",".",".",".",".",".",".",".",".",".",".",".",".",".",".",".",".",".",".",".",".",".",".",".",".",".","."],[1,"/",5,8,10,8,5,"/",8,10,8,8,6,"/",5,3,"/",1,".",".",".",".",5,"/",8,10,8,10,"/",13,12,10,8,8,6,"\\",5,3,"/",1,".",".",".",".",1,"/",5,6,5],[".",".",".",".",".",".",".",".",".",".",".",".",".",".",".",".",".",".",7,5,5,4,".",".",".",".",".",".",".",".",".",".",".",".",".",".",".",".",".",".",7,5,5,4,".",".",".",".","."],[".",".",".",".",".",".",".",".",".",".",".",".",".",".",".",".",".",".",".",".",".",".",".",".",".",".",".",".",".",".",".",".",".",".",".",".",".",".",".",".",".",".",".",".",".",".",".",".","."],[".",".",".",".",".",".",".",".",".",".",".",".",".",".",".",".",".",".",".",".",".",".",".",".",".",".",".",".",".",".",".",".",".",".",".",".",".",".",".",".",".",".",".",".",".",".",".",".","."],[".",".",".",".",".",".",".",".",".",".",".",".",".",".",".",".",".",".",".",".",".",".",".",".",".",".",".",".",".",".",".",".",".",".",".",".",".",".",".",".",".",".",".",".",".",".",".",".","."]],[[".",".",".",".",".",".",".",".",".",".",".",".",".",".",".",".",".",".",".",".",".","."],[5,3,"\\",1,10,8,"/",10,"\\",8,5,6,"\\",5,3,"v",1,"/",3,"\\",1,1],[".",".",".",".",".",".",".",".",".",".",".",".",".",".",".",".",".",".",".",".",".","."],[".",".",".",".",".",".",".",".",".",".",".",".",".",".",".",".",".",".",".",".",".","."],[".",".",".",".",".",".",".",".",".",".",".",".",".",".",".",".",".",".",".",".",".","."],[".",".",".",".",".",".",".",".",".",".",".",".",".",".",".",".",".",".",".",".",".","."]],[[".",".",".",".",".",".",".",".",".",".",".",".",".",".",".",".",".",".",".",".",".",".",".",".",".",".",".",".",".",".",".",".","."],[5,5,5,1,"/",6,6,5,"v",5,5,5,3,1,10,10,8,"/",10,"\\",8,5,6,"\\",5,3,3,1,"/",5,"\\",3,1],[".",".",".",".",".",".",".",".",".",".",".",".",".",".",".",".",".",".",".",".",".",".",".",".",".",".",".",".",".",".",".",".","."],[".",".",".",".",".",".",".",".",".",".",".",".",".",".",".",".",".",".",".",".",".",".",".",".",".",".",".",".",".",".",".",".","."],[".",".",".",".",".",".",".",".",".",".",".",".",".",".",".",".",".",".",".",".",".",".",".",".",".",".",".",".",".",".",".",".","."],[".",".",".",".",".",".",".",".",".",".",".",".",".",".",".",".",".",".",".",".",".",".",".",".",".",".",".",".",".",".",".",".","."]],[[1,"/",5,8,10,8,5,"/",8,10,8,8,6,"\\",5,3,"\\",1,1,".",".",".",".",5,"/",8,10,8,10,"/",13,12,10,8,8,6,"\\",5,3,"\\",1,".",".",".",".","."],[".",".",".",".",".",".",".",".",".",".",".",".",".",".",".",".",".",".",".",7,5,5,4,".",".",".",".",".",".",".",".",".",".",".",".",".",".",".",".",".",".",7,5,5,4,"v"],[".",".",".",".",".",".",".",".",".",".",".",".",".",".",".",".",".",".",".",".",".",".",".",".",".",".",".",".",".",".",".",".",".",".",".",".",".",".",".",".",".",".",".",".",".","."],[".",".",".",".",".",".",".",".",".",".",".",".",".",".",".",".",".",".",".",".",".",".",".",".",".",".",".",".",".",".",".",".",".",".",".",".",".",".",".",".",".",".",".",".",".","."],[".",".",".",".",".",".",".",".",".",".",".",".",".",".",".",".",".",".",".",".",".",".",".",".",".",".",".",".",".",".",".",".",".",".",".",".",".",".",".",".",".",".",".",".",".","."],[".",".",".",".",".",".",".",".",".",".",".",".",".",".",".",".",".",".",".",".",".",".",".",".",".",".",".",".",".",".",".",".",".",".",".",".",".",".",".",".",".",".",".",".",".","."]],[[5,5,6,7,7,8,7,5,5,".",".",".",".",".",".",".",".",".",".",".",".",".",".",".",".",".",".",".",".",".",".",".",".",".","."],[6,".",".",".",8,".",".",6,".",6,".",".",".",".",".",".",".",".",".",".",".",".",".",12,".",12,".",12,".",13,".",13,".",13,"."],[7,".",".",".",7,".",".",7,".",".",7,12,".",12,".",12,".",14,".",14,".",14,".",".",".",".",".",".",".",".",".",".",".",".","."],[".",".",".",".",".",".",".",".",".",".",".",".",12,".",12,".",12,".",12,".",12,".",12,".",12,".",12,".",12,".",12,".",12,".",12],[".",".",".",".",".",".",".",".",".",".",".",".",".",".",".",".",".",".",".",".",".",".",".",".",".",".",".",".",".",".",".",".",".",".","."],[".",".",".",".",".",".",".",".",".",".",".",".",".",".",".",".",".",".",".",".",".",".",".",".",".",".",".",".",".",".",".",".",".",".","."]],[[".",".",".",".",".",".",12,".",12,".",12,".",13,".",13,".",13,".",15,"v"],[15,".",15,".",15,".",".",".",".",".",".",".",".",".",".",".",".",".",".","."],[".",".",".",".",".",".",".",".",".",".",".",".",".",".",".",".",".",".",".","."],[".",12,".",12,".",12,".",12,".",12,".",12,".",12,".",12,".",12,".","."],[".",".",".",".",".",".",".",".",".",".",".",".",".",".",".",".",".",".",".","."],[".",".",".",".",".",".",".",".",".",".",".",".",".",".",".",".",".",".",".","."]],[[".",".",".",".",".",".",".",".",".",".",".",".",".",".",".",".",".",".",".",".",".",".",".",".",".",".",".",".",".",".",".",".",".",".",".",".",".",".",".",".",".",".",".",".","."],[13,"/",17,20,22,20,13,"/",17,20,22,20,13,"/",17,20,22,20,17,15,15,13,"/",15,17,20,22,20,13,"/",15,17,20,22,20,13,"/",15,17,20,22,20,17,15,15],[".",".",".",".",".",".",".",".",".",".",".",".",".",".",".",".",".",".",".",".",".",".",".",".",".",".",".",".",".",".",".",".",".",".",".",".",".",".",".",".",".",".",".",".","."],[".",".",".",".",".",".",".",".",".",".",".",".",".",".",".",".",".",".",".",".",".",".",".",".",".",".",".",".",".",".",".",".",".",".",".",".",".",".",".",".",".",".",".",".","."],[".",".",".",".",".",".",".",".",".",".",".",".",".",".",".",".",".",".",".",".",".",".",".",".",".",".",".",".",".",".",".",".",".",".",".",".",".",".",".",".",".",".",".",".","."],[".",".",".",".",".",".",".",".",".",".",".",".",".",".",".",".",".",".",".",".",".",".",".",".",".",".",".",".",".",".",".",".",".",".",".",".",".",".",".",".",".",".",".",".","."]],[[".",".",".",".",".",".",".",".",".",".",".",".",".",".",".",".",".",".",".",".",".",".",".",".",".",".",".",".",".",".",".",".",12,".",12,".",12,".",12,".",12,".",12,".",12,".",12,"."],[13,".",13,".",13,".",13,".",13,".",13,".",13,".",13,".",15,".",15,".",15,".",15,".",15,".",15,".",15,".",15,".",".",".",".",".",".",".",".",".",".",".",".",".",".",".",".","."],[".",12,".",12,".",12,".",12,".",12,".",12,".",12,".",12,".",12,".",12,".",12,".",12,".",12,".",12,".",12,".",12,".",12,".",12,".",12,".",12,".",12,".",12,".",12,".",12],[".",".",".",".",".",".",".",".",".",".",".",".",".",".",".",".",".",".",".",".",".",".",".",".",".",".",".",".",".",".",".",".",".",".",".",".",".",".",".",".",".",".",".",".",".",".",".","."],[".",".",".",".",".",".",".",".",".",".",".",".",".",".",".",".",".",".",".",".",".",".",".",".",".",".",".",".",".",".",".",".",".",".",".",".",".",".",".",".",".",".",".",".",".",".",".","."],[".",".",".",".",".",".",".",".",".",".",".",".",".",".",".",".",".",".",".",".",".",".",".",".",".",".",".",".",".",".",".",".",".",".",".",".",".",".",".",".",".",".",".",".",".",".",".","."]],[[".",".",".",".",".",".",".",".",".",".",".",".",".",".",".",".",".",".",".",".",".",".",".",".",".",".",".",".",".",".",".","."],[15,".",15,".",15,".",15,".",13,".",13,".",13,".",13,".",12,".",12,".",12,".",12,".",13,".",13,".",13,".",13,"."],[".",12,".",12,".",12,".",12,".",12,".",12,".",12,".",12,".",12,".",12,".",12,".",12,".",12,".",12,".",12,".",12],[".",".",".",".",".",".",".",".",".",".",".",".",".",".",".",".",".",".",".",".",".",".",".",".",".",".",".",".",".",".",".","."],[".",".",".",".",".",".",".",".",".",".",".",".",".",".",".",".",".",".",".",".",".",".",".",".",".",".",".",".",".",".",".","."],[".",".",".",".",".",".",".",".",".",".",".",".",".",".",".",".",".",".",".",".",".",".",".",".",".",".",".",".",".",".",".","."]],[[".",".",".",15,".",".",".",".",".",15,".",".",".",".",".",15,".",".",".",".",".",15,".","."],[".",13,".",".",".",13,".",13,".",".",".",13,".",13,".",".",".",13,".",13,".",".",".",13],[12,".",12,".",12,".",12,".",12,".",12,".",12,".",12,".",12,".",12,".",12,".",12,"."],[".",".",".",".",".",".",".",".",".",".",".",".",".",".",".",".",".",".",".",".",".",".",".","."],[".",".",".",".",".",".",".",".",".",".",".",".",".",".",".",".",".",".",".",".",".",".",".","."],[".",".",".",".",".",".",".",".",".",".",".",".",".",".",".",".",".",".",".",".",".",".",".","."]],[[".",".",".",17,".",".",".",".",".",17,".",".",".",".",".",17,".",".",".",".",".",19],[".",13,".",".",".",13,".",13,".",".",".",13,".",13,".",".",".",13,".",13,".","."],[14,".",14,".",14,".",14,".",14,".",14,".",14,".",14,".",14,".",14,".",14,"."],[".",".",".",".",".",".",".",".",".",".",".",".",".",".",".",".",".",".",".",".",".","."],[".",".",".",".",".",".",".",".",".",".",".",".",".",".",".",".",".",".",".",".",".","."],[".",".",".",".",".",".",".",".",".",".",".",".",".",".",".",".",".",".",".",".",".","."]],[[".",".",".",20,".",".",".",".",".",20,".",".",".",".",".",20,".",".",".",".",".",20,".","."],[".",17,".",".",".",17,".",17,".",".",".",17,".",17,".",".",".",17,".",17,".",".",".",17],[17,".",17,".",17,".",17,".",17,".",17,".",17,".",17,".",17,".",17,".",17,".",17,"."],[".",".",".",".",".",".",".",".",".",".",".",".",".",".",".",".",".",".",".",".",".",".",".","."],[".",".",".",".",".",".",".",".",".",".",".",".",".",".",".",".",".",".",".",".",".",".",".","."],[".",".",".",".",".",".",".",".",".",".",".",".",".",".",".",".",".",".",".",".",".",".",".","."]],[[".",19,".",19,".",19,".",17,".",17,".",17,".",".",".",".",".",".",".",".",".",".",".",".","."],[".",".",".",".",".",".",".",".",".",".",".",".",".",20,".",20,".",20,".",18,".",18,".",18,17],[17,".",17,".",17,".",17,".",17,".",17,".",17,".",17,".",17,".",17,".",17,".",17,".",17],[".",".",".",".",".",".",".",".",".",".",".",".",".",".",".",".",".",".",".",".",".",".",".",".","."],[".",".",".",".",".",".",".",".",".",".",".",".",".",".",".",".",".",".",".",".",".",".",".",".","."],[".",".",".",".",".",".",".",".",".",".",".",".",".",".",".",".",".",".",".",".",".",".",".",".","."]],[[".",".",".",".",".",".",".",".",".",".",".",".",".",".",".",".",".",".",".",".",".",".",".",".",".",".",".",".",".",".",".",".",".",".",".",".",".",".",".",".",".",".","."],[5,"/",8,10,8,5,"/",8,10,8,8,6,"\\",5,3,"\\",1,".",".",".",".",5,"/",8,10,8,10,"/",13,12,10,8,8,6,"\\",5,3,"\\",1,".",".",".","."],[".",".",".",".",".",".",".",".",".",".",".",".",".",".",".",".",".",7,5,5,4,".",".",".",".",".",".",".",".",".",".",".",".",".",".",".",".",".",".",7,5,5,4],[".",".",".",".",".",".",".",".",".",".",".",".",".",".",".",".",".",".",".",".",".",".",".",".",".",".",".",".",".",".",".",".",".",".",".",".",".",".",".",".",".",".","."],[".",".",".",".",".",".",".",".",".",".",".",".",".",".",".",".",".",".",".",".",".",".",".",".",".",".",".",".",".",".",".",".",".",".",".",".",".",".",".",".",".",".","."],[".",".",".",".",".",".",".",".",".",".",".",".",".",".",".",".",".",".",".",".",".",".",".",".",".",".",".",".",".",".",".",".",".",".",".",".",".",".",".",".",".",".","."]],[[".",".",".",".",".",".",".",".",".","."],[1,"/",5,5,"/",6,"/",8,5,"v"],[".",".",".",".",".",".",".",".",".","."],[".",".",".",".",".",".",".",".",".","."],[".",".",".",".",".",".",".",".",".","."],[".",".",".",".",".",".",".",".",".","."]]],"numberofstrings":6,"notes":["E","B","G","D","A","E","B"],"capo":0,"stringnotes":["E4","B3","G3","D3","A2","E2"],"comments":["Stave 1:","Stave 2:","Stave 3:","Stave 4:","Stave 5:","Stave 6:","Stave 7:","Stave 8:","Stave 9:","Stave 10:","Stave 11:","Stave 12:","Stave 13:","Stave 14:","Stave 15:","Stave 16:","Stave 17:"],"timing":[["W","W","W","W",null,"W","W","W",null,"W","W","W","W","W","W","W","W","W",null,"W",null,"W","W","W",null,"W",null,"W","W","W","W",null,"W","W","W","W","W","W","W","W",null,"W","W","W","W",null,"W","W","W","W","W"],["W","W","W","W",null,"W","W","W","W",null,"W","W","W","W",null,"W",null,"W",null,"W","W"],["W",null,"W","W","W","W","W",null,"W","W","W","W","W",null,"W","W",null,"W","W","W","W","W","W",null,"W","W","W","W",null,"W","W","W","W","W","W",null,"W","W",null,"W","W","W","W","W","W",null,"W","W","W"],["W","W",null,"W","W","W",null,"W",null,"W","W","W",null,"W","W",null,"W",null,"W",null,"W","W"],["W","W","W","W",null,"W","W","W",null,"W","W","W","W","W","W","W","W",null,"W",null,"W","W","W",null,"W","W","W","W",null,"W",null,"W","W"],["W",null,"W","W","W","W","W",null,"W","W","W","W","W",null,"W","W",null,"W","W","W","W","W","W","W",null,"W","W","W","W",null,"W","W","W","W","W","W",null,"W","W",null,"W","W","W","W","W"],["W","W","W","W","W","W","W","W","W","W","W","W","W","W","W","W","W","W","W","W","W","W","W","W","W","W","W","W","W","W","W","W","W","W","W"],["W","W","W","W","W","W","W","W","W","W","W","W","W","W","W","W","W","W","W"],["W",null,"W","W","W","W","W",null,"W","W","W","W","W",null,"W","W","W","W","W","W","W","W",null,"W","W","W","W","W","W",null,"W","W","W","W","W","W",null,"W","W","W","W","W","W","W","W"],["W","W","W","W","W","W","W","W","W","W","W","W","W","W","W","W","W","W","W","W","W","W","W","W","W","W","W","W","W","W","W","W","W","W","W","W","W","W","W","W","W","W","W","W","W","W","W","W"],["W","W","W","W","W","W","W","W","W","W","W","W","W","W","W","W","W","W","W","W","W","W","W","W","W","W","W","W","W","W","W","W"],["W","W","W","W","W","W","W","W","W","W","W","W","W","W","W","W","W","W","W","W","W","W","W","W"],["W","W","W","W","W","W","W","W","W","W","W","W","W","W","W","W","W","W","W","W","W","W"],["W","W","W","W","W","W","W","W","W","W","W","W","W","W","W","W","W","W","W","W","W","W","W","W"],["W","W","W","W","W","W","W","W","W","W","W","W","W","W","W","W","W","W","W","W","W","W","W","W","W"],["W",null,"W","W","W","W",null,"W","W","W","W","W",null,"W","W",null,"W","W","W","W","W","W",null,"W","W","W","W",null,"W","W","W","W","W","W",null,"W","W",null,"W","W","W","W","W"],["W",null,"W","W",null,"W",null,"W","W"]],"timingvisible":false,"tabcounter":10,"stave":16,"totalstaves":17,"instrument":"6guitar","selectedtuning":"6_standard","version":"13"}

Member for

4 months 1 week
About Me
im a guitarrist
Submitted by DaniGuitarCovers on Wed, 2021-08-04 17:14