Sound will begin in 5 seconds

Mascara

Chords
01234567891011121314151617181920212223
E
B
G
D
A
E
B
0 1 2 3 4 5 6 7 8 9 10 11 12 13 14 15 16 17 18 19 20 21 22 23
Song Science #1: How Pros Use 6 Chords to Write Hit Songs
(/) Slide Up  (\) Slide Down  (h) Hammer On  (p) Pull Off  (b) Bend (r) Release (v) Vibrato

Stave 1:

E|-----------------------------------------------------------------
B|-----------------------------------------------------------------
G|-----------------------------------------------------------------
D|-0-0-0-0-0/6-5-3-0-0-0/6-6-6-6-6-0-0-0-0-0/6-5-3-0-0-0-1-1-1-1-1-
A|-0-0-0-0-0-6-5-3-0-0-0-6-6-6-6-6-0-0-0-0-0-6-5-3-0-0-0-1-1-1-1-1-
D|-0-0-0-0-0-6-5-3-0-0-0-6-6-6-6-6-0-0-0-0-0-6-5-3-0-0-0-1-1-1-1-1-

Stave 2:

E|-----------------------------------------------------------
B|-----------------------------------------------------------
G|-----------------------------------------------------------
D|-0-0-0-0-0-6-5-3-0-0-0/6-6-6-6-6-0-0-0-0-0-6-5-3-0-0-0-1-1-
A|-0-0-0-0-0-6-5-3-0-0-0-6-6-6-6-6-0-0-0-0-0-6-5-3-0-0-0-1-1-
D|-0-0-0-0-0/6-5-3-0-0-0-6-6-6-6-6-0-0-0-0-0/6-5-3-0-0-0-1-1-

Stave 3:

E|-------------------------------------------------------------------------------------
B|-15----------------------------------------------------------------------------------
G|-14----------------------------------------------------------------------------------
D|-12----------------------------------------------------------------------------------
A|-------------------------------------------------------------------------------------
D|-------------------------------------------------------------------------------------

Stave 4:

E|-----------------------------------------------------------------------------------------
B|-----------------------------------------------------------------------------------------
G|-----------------------------------------------------------------------------------------
D|-0-0-0-0-0-0-0-0/6-5-3-0-0-0-0-0-0-6-6-6-6-6-0-0-0-0-0-0-0-0/6-5-3-0-0-0-0-0-0-1-1-1-1-1-
A|-0-0-0-0-0-0-0-0-6-5-3-0-0-0-0-0-0-6-6-6-6-6-0-0-0-0-0-0-0-0-6-5-3-0-0-0-0-0-0-1-1-1-1-1-
D|-0-0-0-0-0-0-0-0-6-5-3-0-0-0-0-0-0/6-6-6-6-6-0-0-0-0-0-0-0-0-6-5-3-0-0-0-0-0-0-1-1-1-1-1-

Stave 5:

E|------------------
B|-3-------4----3-3-
G|-2-------3----2-2-
D|-0-------1----0-0-
A|-0-------1----0-0-
D|-0-------1----0-0-

Stave 6:

E|------------------
B|-3----6----8----6-
G|-2----5----7----5-
D|-0----3----5----3-
A|-0----3----5----3-
D|-0----3----5----3-

Stave 7:

E|-------------------
B|-------------------
G|-------------------
D|-6-5-3-0/6-6-5-3-0/
A|-6-5-3-0-6-6-5-3-0-
D|-6-5-3-0-6-6-5-3-0-

Stave 8:

E|------------------------------------------------
B|------------------------------------------------
G|------------------------------------------------
D|-0----------------------------------------------
A|-0----------------------------------------------
D|-0----------------------------------------------

Stave 9:

E|---------------------------
B|---------------------------
G|---------------------------
D|-0-0-0-0-0-0-0-0-0-0-0-0-0-
A|-0-0-0-0-0-0-0-0-0-0-0-0-0-
D|-0-0-0-0-0-0-0-0-0-0-0-0-0-

Stave 10:

E|---------------------------------------------------
B|---------------------------------------------------
G|---------------------------------------------------
D|-0-0-0-0-0/6-5-3-0-0-0/6-6-6-6-6-0-0-0-0-0/6-5-3-0-
A|-0-0-0-0-0-6-5-3-0-0-0-6-6-6-6-6-0-0-0-0-0-6-5-3-0-
D|-0-0-0-0-0-6-5-3-0-0-0-6-6-6-6-6-0-0-0-0-0-6-5-3-0-

Stave 11:

E|-------------
B|-3----6----8-
G|-2----5----7-
D|-0----3----5-
A|-0----3----5-
D|-0----3----5-

Stave 12:

E|-
B|-
G|-
D|-
A|-
D|-

http://www.guitartabcreator.com
Guitar Tab Creator is intended to store guitar tab created through the tool. It currently does not support in-line text editing. Any text you place in here will be lost. If you need to comment on your tab, please use the "Tab Notes" section located below.