Sound will begin in 5 seconds

Blues Solo In C

01234567891011121314151617181920212223
E
B
G
D
A
E
B
0 1 2 3 4 5 6 7 8 9 10 11 12 13 14 15 16 17 18 19 20 21 22 23
Song Science #1: How Pros Use 6 Chords to Write Hit Songs
(/) Slide Up  (\) Slide Down  (h) Hammer On  (p) Pull Off  (b) Bend (r) Release (v) Vibrato

Stave 1:

E|------------------------------------------------------------------------------|--
B|------------------------------------------------------------------------------|--
G|-----------------10b10p8-----------------------10b10b10p8h10p8----------------|--
D|------8--10v--------------10p8h10v-----10--10-------------------10p8----------|--
A|--10------------------------------------------------------------------10p8\6--|--
E|------------------------------------------------------------------------------|--

Stave 2:

E|-----------------------------------------------------|--
B|--11b11p8--------------------------------------------|--
G|-----------10p8--10p8\5---------------8b8p5----------|--
D|-------------------------8-----8--10---------8/10p8--|--
A|-----------------------------------------------------|--
E|-----------------------------------------------------|--

Stave 3:

E|--------8--11b11v-----11--8--------8---------|--
B|--11p8-----------------------11p8-----11/13--|--
G|---------------------------------------------|--
D|---------------------------------------------|--
A|---------------------------------------------|--
E|---------------------------------------------|--

Stave 4:

E|-----------11--13b13-----------13p11---------------------------|--
B|--13--13v-------------13--13v---------13--11------11-----------|--
G|----------------------------------------------12------12p10\8--|--
D|---------------------------------------------------------------|--
A|---------------------------------------------------------------|--
E|---------------------------------------------------------------|--

Stave 5:

E|-----------------------------------------|--
B|-----------------------------------------|--
G|-----------------------8-----------------|--
D|------------8--10---------10--8----------|--
A|--8--9--10---------10------------10p8\6--|--
E|-----------------------------------------|--

Stave 6:

E|----------------------------------------|--
B|----------------------------------------|--
G|-----------5--5--8/10p8\5---------------|--
D|---------------------------8p5----------|--
A|--6--7--8-----------------------8p6-----|--
E|-------------------------------------8--|--

Stave 7:

E|--11--8--------------------------------------------11--------------------------|--
B|---------11--8------------------------8--8--11/13------13v--p11\8--------------|--
G|----------------10--8----------------------------------------------10p8--------|--
D|-----------------------10v--p8-------------------------------------------10p8--|--
A|-------------------------------------------------------------------------------|--
E|-------------------------------------------------------------------------------|--

Stave 8:

E|---------------11------11--13b11--13b11--13b11--13b11--18b15--18b18p15----------------|--
B|--8--8--11/13------13---------------------------------------------------18b18p16------|--
G|----------------------------------------------------------------------------------17--|--
D|--------------------------------------------------------------------------------------|--
A|--------------------------------------------------------------------------------------|--
E|--------------------------------------------------------------------------------------|--

Stave 9:

E|--18--15--18--18b15--15p13--13p11--11p8--------------------------11-------------------|--
B|-----------------------------------------11--13------11--13--------------11-----------|--
G|-------------------------------------------------12----------12------12------12p10\8--|--
D|--------------------------------------------------------------------------------------|--
A|--------------------------------------------------------------------------------------|--
E|--------------------------------------------------------------------------------------|--

Stave 10:

E|-------------------------------------------------------------------------------------|--
B|--------------------------------6-----6-----6-----6-----6-----6-----6-----6----------|--
G|---------10b10b10p8--10b8--8b8-----8-----8-----8-----8-----8-----8-----8-----8p5-----|--
D|--8--10---------------------------------------------------------------------------8--|--
A|-------------------------------------------------------------------------------------|--
E|-------------------------------------------------------------------------------------|--

http://www.guitartabcreator.com
Guitar Tab Creator is intended to store guitar tab created through the tool. It currently does not support in-line text editing. Any text you place in here will be lost. If you need to comment on your tab, please use the "Tab Notes" section located below.