Boom Boom Bitch!

Chords

01234567891011121314151617181920212223
E
B
G
D
A
E
B
0 1 2 3 4 5 6 7 8 9 10 11 12 13 14 15 16 17 18 19 20 21 22 23
(/) Slide Up  (\) Slide Down  (h) Hammer On  (p) Pull Off  (b) Bend (r) Release (v) Vibrato

Stave 1:

E|------------------------------------
B|------------------------------------
G|------------------------------------
D|--12--------------------------------
A|--10--------10--------10--------10--
E|------0--0------0--0------0--0------

Stave 2:

E|---------------------------------------
B|---------------------------------------
G|---------------------------------------
D|--12----------12-----------------------
A|--10--10--10--10--10--10-----10b11b12--
E|------x---x-------x---x----------------

Stave 3:

E|------------------------------------------
B|------------------------------------------
G|------------------------------------------
D|------------------------------------------
A|--10-----10b11b12--------10-----10b11b12--
E|--0---0---------------0------0------------

							http://www.guitartabcreator.com
genre
Instruments
{"strings":[[[".",".",".",".",".",".",".",".",".","."],[".",".",".",".",".",".",".",".",".","."],[".",".",".",".",".",".",".",".",".","."],[12,".",".",".",".",".",".",".",".","."],[10,".",".",10,".",".",10,".",".",10],[".",0,0,".",0,0,".",0,0,"."]],[[".",".",".",".",".",".","_",".",".",".",".","."],[".",".",".",".",".",".","_",".",".",".",".","."],[".",".",".",".",".",".","_",".",".",".",".","."],[12,".",".",12,".",".","_",".",".",".",".","."],[10,10,10,10,10,10,"_",10,"b",11,"b",12],[".","x0","x0",".","x0","x0","_",".",".",".",".","."]],[[".",".",".",".",".",".",".","_",".",".",".",".",".",".",".","."],[".",".",".",".",".",".",".","_",".",".",".",".",".",".",".","."],[".",".",".",".",".",".",".","_",".",".",".",".",".",".",".","."],[".",".",".",".",".",".",".","_",".",".",".",".",".",".",".","."],[10,".",10,"b",11,"b",12,"_",".",10,".",10,"b",11,"b",12],[0,0,".",".",".",".",".","_",0,".",0,".",".",".",".","."]]],"numberofstrings":6,"notes":["E","B","G","D","A","E","B"],"capo":0,"stringnotes":["E4","B3","G3","D3","A2","E2"],"comments":["Stave 1:","Stave 2:","Stave 3:"],"timing":[[null,null,null,null,null,null,null,null,null,null],[null,null,null,null,null,null,null,null,null,null,null,null],["W","W","W",null,"W",null,"W","W","W","W","W","W",null,"W","W","W"]],"timingvisible":false,"tabcounter":16,"stave":2,"totalstaves":3,"instrument":"6guitar","selectedtuning":"6_standard","version":"13"}

Member for

1 year 1 month
Submitted by Daniel Fabriciā€¦ on Mon, 2020-10-05 19:10