City of Stars

01234567891011121314151617181920212223
E
B
G
D
A
E
B
0 1 2 3 4 5 6 7 8 9 10 11 12 13 14 15 16 17 18 19 20 21 22 23
(/) Slide Up  (\) Slide Down  (h) Hammer On  (p) Pull Off  (b) Bend (r) Release (v) Vibrato

Capo Fret 2

Stave 1:

E|-----------0--0-----------------0--0-----------------0--0-----------------0--0--------
B|--------0--------3--0--------0--------3--0--------0--------3--0--------0--------3--0--
G|-----0--------------------0--------------------0--------------------0-----------------
D|--2--------------------2--------------------2--------------------2--------------------
A|--------------------------------------------------------------------------------------
E|--------------------------------------------------------------------------------------

Stave 2:

E|--0--2--3/10--------12--13--10--12--8--10-----2--------------0--2--3/10--------12--13--10--12--8--10-----2--0--2-----------
B|-------------------------------------------------0-----0-------------------------------------------------3--------0--3-----
G|--------------------12---------------------------------------------------------12------------------------2-----------------
D|---------------------------------------------------------------------------------------------------------------------------
A|-----------------0----------------------------2-----2-----------------------0----------------------------------------------
E|--0-----------0----------------------------------------------0-----------0-------------------------------------------------

Stave 3:

E|--2--3-----8--10--8--10--8--10--2--0--2--3--2-----------------------------
B|-----0--------------------------------------------------------------------
G|-----0-----9--------------------------------------------------------------
D|--------------------------------0-----------------------------------------
A|--------0-----------------------------4-----3-----------------------------
E|-----0--------------------------------------------------------------------

Stave 4:

E|--2--0-----2-----------2--------------------------------------2--------------------------------
B|-----0--0--2--------2-----5--3-----------------------------2-----5--3--------------------------
G|-----0-----3-----3--------------4-----------4--4--2-----3--------------4-----------4--4--2-----
D|-----------2-----------------------------4-----------4--------------------------4-----------4--
A|-----------2-----------------------2--5-----------------------------------2--5-----------------
E|-----0-----2-----------------------------------------------------------------------------------

Stave 5:

E|-----------------------------------------------------------------------
B|--0--0--0-----0--2--2--0--2--2--2--0--2--3--3--2--2--0-----------------
G|--0--0--0--2-----------------------------------------------------------
D|--0--0--0--------2-----------------------------------4-----------------
A|-----------------0-----------1-----------2-----------------------------
E|--3--3--3--------------------------------------------------------------

Stave 6:

E|--------------------------------------------------------
B|--0--0--0-----0--2--2--0--2-----------------------------
G|--0--0--0--2-----------------4--------------------------
D|--0--0--0--------2-----------4--------------------------
A|-----------------0-----------2--------------------------
E|--3--3--3-----------------------------------------------

Stave 7:

E|--------------------------------------------------------
B|--0--0--0-----0--2--2--0--2--2--2--0--2--3--3--2--2--0--
G|--0--0--0--2--------------------------------------------
D|--0--0--0--------2-----------------------------------4--
A|-----------------0-----------1-----------2--------------
E|--3--3--3-----------------------------------------------

Stave 8:

E|-----------------------------2-----------------------------------------------------
B|--0--0--0-----0--2--2-----2-----5--3-----------------------------------------------
G|--0--0--0--2--------3--3--------------4-----------4--4--2--------------4--4--2-----
D|--0--0--0--------2-----------------------------4-----------4--------4-----------4--
A|-----------------0-----------------------2--5-----------------2--5-----------------
E|--3--3--3-----------2--------------------------------------------------------------

Stave 9:

E|--0--2--3/10--------12--13--10--12--8--10-----2--------------0--2--3/10--------12--13--10--12--8--10-----2--0--2--------
B|-------------------------------------------------0-----0-------------------------------------------------3--------0--3--
G|--------------------12---------------------------------------------------------12------------------------2--------------
D|------------------------------------------------------------------------------------------------------------------------
A|-----------------0----------------------------2-----2-----------------------0-------------------------------------------
E|--0-----------0----------------------------------------------0-----------0----------------------------------------------

Stave 10:

E|--------2-----------2--
B|-----2-----5--3-----3--
G|--3--------------4--4--
D|--------------------4--
A|--------------------2--
E|-----------------------

							http://www.guitartabcreator.com
Chords

Instruments
{"title":"City of Stars","strings":[[[".",".",".",0,0,".",".",".",".",".",0,0,".",".",".",".",".",0,0,".",".",".",".",".",0,0,".","."],[".",".",0,".",".",3,0,".",".",0,".",".",3,0,".",".",0,".",".",3,0,".",".",0,".",".",3,0],[".",0,".",".",".",".",".",".",0,".",".",".",".",".",".",0,".",".",".",".",".",".",0,".",".",".",".","."],[2,".",".",".",".",".",".",2,".",".",".",".",".",".",2,".",".",".",".",".",".",2,".",".",".",".",".","."],[".",".",".",".",".",".",".",".",".",".",".",".",".",".",".",".",".",".",".",".",".",".",".",".",".",".",".","."],[".",".",".",".",".",".",".",".",".",".",".",".",".",".",".",".",".",".",".",".",".",".",".",".",".",".",".","."]],[[0,2,3,"/",10,".",".",12,13,10,12,8,10,".",2,".",".",".",".",0,2,3,"/",10,".",".",12,13,10,12,8,10,".",2,0,2,".",".","."],[".",".",".",".",".",".",".",".",".",".",".",".",".",".",".",0,".",0,".",".",".",".",".",".",".",".",".",".",".",".",".",".",".",3,".",".",0,3,"."],[".",".",".",".",".",".",".",12,".",".",".",".",".",".",".",".",".",".",".",".",".",".",".",".",".",".",12,".",".",".",".",".",".",2,".",".",".",".","."],[".",".",".",".",".",".",".",".",".",".",".",".",".",".",".",".",".",".",".",".",".",".",".",".",".",".",".",".",".",".",".",".",".",".",".",".",".",".","."],[".",".",".",".",".",".",0,".",".",".",".",".",".",".",2,".",2,".",".",".",".",".",".",".",".",0,".",".",".",".",".",".",".",".",".",".",".",".","."],[0,".",".",".",".",0,".",".",".",".",".",".",".",".",".",".",".",".",".",0,".",".",".",".",0,".",".",".",".",".",".",".",".",".",".",".",".",".","."]],[[2,3,".",8,10,8,10,8,10,2,0,2,3,2,".",".",".",".",".",".",".",".","."],[".",0,".",".",".",".",".",".",".",".",".",".",".",".",".",".",".",".",".",".",".",".","."],[".",0,".",9,".",".",".",".",".",".",".",".",".",".",".",".",".",".",".",".",".",".","."],[".",".",".",".",".",".",".",".",".",0,".",".",".",".",".",".",".",".",".",".",".",".","."],[".",".",0,".",".",".",".",".",".",".",".",4,".",3,".",".",".",".",".",".",".",".","."],[".",0,".",".",".",".",".",".",".",".",".",".",".",".",".",".",".",".",".",".",".",".","."]],[[2,0,".",2,".",".",".",2,".",".",".",".",".",".",".",".","_","_",".",".",2,".",".",".",".",".",".",".",".",".","."],[".",0,0,2,".",".",2,".",5,3,".",".",".",".",".",".","_","_",".",2,".",5,3,".",".",".",".",".",".",".","."],[".",0,".",3,".",3,".",".",".",".",4,".",".",".",4,4,2,"_",3,".",".",".",".",4,".",".",".",4,4,2,"."],[".",".",".",2,".",".",".",".",".",".",".",".",".",4,".",".","_",4,".",".",".",".",".",".",".",".",4,".",".",".",4],[".",".",".",2,".",".",".",".",".",".",".",2,5,".",".",".","_","_",".",".",".",".",".",".",2,5,".",".",".",".","."],[".",0,".",2,".",".",".",".",".",".",".",".",".",".",".",".","_","_",".",".",".",".",".",".",".",".",".",".",".",".","."]],[[".",".",".",".",".",".",".",".",".",".",".",".",".",".",".",".",".",".",".",".",".",".","."],[0,0,0,".",0,2,2,0,2,2,2,0,2,3,3,2,2,0,".",".",".",".","."],[0,0,0,2,".",".",".",".",".",".",".",".",".",".",".",".",".",".",".",".",".",".","."],[0,0,0,".",".",2,".",".",".",".",".",".",".",".",".",".",".",4,".",".",".",".","."],[".",".",".",".",".",0,".",".",".",1,".",".",".",2,".",".",".",".",".",".",".",".","."],[3,3,3,".",".",".",".",".",".",".",".",".",".",".",".",".",".",".",".",".",".",".","."]],[[".",".",".",".",".",".",".",".",".",".",".",".",".",".",".",".",".","."],[0,0,0,".",0,2,2,0,2,".",".",".",".",".",".",".",".","."],[0,0,0,2,".",".",".",".",".",4,".",".",".",".",".",".",".","."],[0,0,0,".",".",2,".",".",".",4,".",".",".",".",".",".",".","."],[".",".",".",".",".",0,".",".",".",2,".",".",".",".",".",".",".","."],[3,3,3,".",".",".",".",".",".",".",".",".",".",".",".",".",".","."]],[[".",".",".",".",".",".",".",".",".",".",".",".",".",".",".",".",".","."],[0,0,0,".",0,2,2,0,2,2,2,0,2,3,3,2,2,0],[0,0,0,2,".",".",".",".",".",".",".",".",".",".",".",".",".","."],[0,0,0,".",".",2,".",".",".",".",".",".",".",".",".",".",".",4],[".",".",".",".",".",0,".",".",".",1,".",".",".",2,".",".",".","."],[3,3,3,".",".",".",".",".",".",".",".",".",".",".",".",".",".","."]],[[".",".",".",".",".",".",".",".",".",2,".",".",".",".",".",".",".",".",".",".",".",".",".",".",".",".","."],[0,0,0,".",0,2,2,".",2,".",5,3,".",".",".",".",".",".",".",".",".",".",".",".",".",".","."],[0,0,0,2,".",".",3,3,".",".",".",".",4,".",".",".",4,4,2,".",".",".",".",4,4,2,"."],[0,0,0,".",".",2,".",".",".",".",".",".",".",".",".",4,".",".",".",4,".",".",4,".",".",".",4],[".",".",".",".",".",0,".",".",".",".",".",".",".",2,5,".",".",".",".",".",2,5,".",".",".",".","."],[3,3,3,".",".",".",2,".",".",".",".",".",".",".",".",".",".",".",".",".",".",".",".",".",".",".","."]],[[0,2,3,"/",10,".",".",12,13,10,12,8,10,".",2,".",".",".",".",0,2,3,"/",10,".",".",12,13,10,12,8,10,".",2,0,2,".","."],[".",".",".",".",".",".",".",".",".",".",".",".",".",".",".",0,".",0,".",".",".",".",".",".",".",".",".",".",".",".",".",".",".",3,".",".",0,3],[".",".",".",".",".",".",".",12,".",".",".",".",".",".",".",".",".",".",".",".",".",".",".",".",".",".",12,".",".",".",".",".",".",2,".",".",".","."],[".",".",".",".",".",".",".",".",".",".",".",".",".",".",".",".",".",".",".",".",".",".",".",".",".",".",".",".",".",".",".",".",".",".",".",".",".","."],[".",".",".",".",".",".",0,".",".",".",".",".",".",".",2,".",2,".",".",".",".",".",".",".",".",0,".",".",".",".",".",".",".",".",".",".",".","."],[0,".",".",".",".",0,".",".",".",".",".",".",".",".",".",".",".",".",".",0,".",".",".",".",0,".",".",".",".",".",".",".",".",".",".",".",".","."]],[[".",".",2,".",".",".",2],[".",2,".",5,3,".",3],[3,".",".",".",".",4,4],[".",".",".",".",".",".",4],[".",".",".",".",".",".",2],[".",".",".",".",".",".","."]]],"numberofstrings":6,"notes":["E","B","G","D","A","E","B"],"capo":"2","stringnotes":["E4","B3","G3","D3","A2","E2"],"comments":["Stave 1:","Stave 2:","Stave 3:","Stave 4:","Stave 5:","Stave 6:","Stave 7:","Stave 8:","Stave 9:","Stave 10:"],"timing":[[null,"W","W","W","W","W","W","W","W","W","W","W","W","W","W","W","W","W","W","W","W","W","W","W","W","W","W","W","W"],[null,"W","W","W","W","W","W","W","W","W","W","W","W","W","W","W","W","W","W",null,"W","W","W",null,"W","W","W","W","W","W","W","W","W",null,"W","W","W","W","W"],[null,"W","W","W","W","W","W","W","W","W","W","W","W","W","W"],[null,"W","W","W","W","W","W","W","W","W","W","W",null,null,null,null,null,null,null,"W","W","W","W","W","W","W","W","W","W","W","W","W"],[null,null,"W","W","W","W","W","W","W","W","W","W","W","W",null,null,null,null,null,null,null,null,null,"W"],[null,"W","W","W","W","W","W","W","W","W","W","W","W","W","W","W","W","W","W"],[null,"W","W","W","W","W","W","W","W","W","W","W","W","W","W","W","W","W","W"],[null,"W","W","W","W","W","W","W",null,"W","W","W","W","W","W","W","W","W","W","W","W","W","W","W","W","W","W","W"],[null,"W","W","W",null,"W","W","W","W","W","W","W","W","W",null,"W","W","W","W",null,"W","W","W",null,"W","W","W","W","W","W","W","W","W",null,"W","W","W","W","W"],[null,"W","W","W","W","W","W","W"]],"timingvisible":false,"tabcounter":7,"stave":9,"totalstaves":10,"instrument":"6guitar","selectedtuning":"6_standard","version":"13"}

Member for

3 years 8 months
Submitted by dangerpath on Mon, 2017-07-03 23:30