Sound will begin in 5 seconds

Flying Dutchman's Graveyard

01234567891011121314151617181920212223
E
B
G
D
A
E
B
0 1 2 3 4 5 6 7 8 9 10 11 12 13 14 15 16 17 18 19 20 21 22 23
Song Science #1: How Pros Use 6 Chords to Write Hit Songs
(/) Slide Up  (\) Slide Down  (h) Hammer On  (p) Pull Off  (b) Bend (r) Release (v) Vibrato

Stave 1:

E|--------------------------------------------------------
B|--------------------------------------------------------
G|--------------------------------------------------------
D|--2--0---------------------------------0-------0--2--3--
A|--------3--2----3--2--0-------0--2--3-------3-----------
E|-------------------------3------------------------------

Stave 2:

E|----------------------------------------------------
B|----------------------------------------------------
G|----------------------------1--2--------------------
D|--2--0----------------------------3--2--0-----------
A|--------3--2----3--2--0--------------------3--2--0--
E|-------------------------3--------------------------

Stave 3:

E|--0--------------------1--0--------------------
B|-----0--1--------3--1--------0--1--------------
G|-----------1--2--------------------1--2--------
D|-----------------------------------------2-----
A|--------------------------------------------0--
E|-----------------------------------------------

Stave 4:

E|--------------------------------------------------------
B|--------------------------------------------------------
G|--------------------------------------------------------
D|--2--0---------------------------------0-------0--2--3--
A|--------3--2----3--2--0-------0--2--3-------3-----------
E|-------------------------3------------------------------

Stave 5:

E|------------------------------------------------------
B|----------------------------------------------------4b
G|----------------------------1--2----------------------
D|--2--0----------------------------3--2--0-------------
A|--------3--2----3--2--0--------------------3--2--0----
E|-------------------------3----------------------------

Stave 6:

E|-----------------------------------------10--11--12--11--10--
B|-------------------------------------------------------------
G|-------------------------------------------------------------
D|--0-----------0-----------2-----------2----------------------
A|-----0--0--0-----0--0--0-----0--0--0-------------------------
E|-------------------------------------------------------------

Stave 7:

E|-----------------------------------------10--11--12--11--10--
B|-------------------------------------------------------------
G|-------------------------------------------------------------
D|--0-----------0-----------2-----------2----------------------
A|-----0--0--0-----0--0--0-----0--0--0-------------------------
E|-------------------------------------------------------------

Stave 8:

E|-----------------------------------------10--11--12--11--10--
B|-------------------------------------------------------------
G|-------------------------------------------------------------
D|--0-----------0-----------2-----------2----------------------
A|-----0--0--0-----0--0--0-----0--0--0-------------------------
E|-------------------------------------------------------------

Stave 9:

E|--13--8--12----12--12--12--
B|---------------------------
G|---------------------------
D|---------------------------
A|---------------------------
E|---------------------------

Stave 10:

E|--------------------------------------------------------------------------------------------------
B|--------------------------------------------------------------------------------------------------
G|--------------------------------------------------------------------------------------------------
D|--------------------0--0--------2--2--0--0--3--3--2--2--------0--0--------------------------------
A|--0--0--3--3--2--2--------3--3--------------------------3--3--------2--2--3--3--0--0--2--2--------
E|--------------------------------------------------------------------------------------------4--4--

Stave 11:

E|-----------------------------------------------------------------------------
B|-----------------------------------------------------------------------------
G|-----------------------------------------------------------------------------
D|--------------------0--0--------2--2--0--0-----------------------------------
A|--0--0--3--3--2--2--------3--3--------------2--2--3--3--0--0--2--2--------0--
E|--------------------------------------------------------------------4--4-----

Stave 12:

E|--0--7--8--4--5--1--0--5-----5-----1--0--------------
B|--------------------------3-----1--------3--1--0-----
G|--------------------------------------------------2--
D|-----------------------------------------------------
A|-----------------------------------------------------
E|-----------------------------------------------------

Stave 13:

E|-----------------------------------------------------------------
B|--1--1--------0--0-----------------------------------------------
G|--------2--2--------1--1--2--2-----------------------------------
D|--------------------------------3--3--2--2--0--0-----------------
A|--------------------------------------------------3--3--2--2--0--
E|-----------------------------------------------------------------

http://www.guitartabcreator.com
Guitar Tab Creator is intended to store guitar tab created through the tool. It currently does not support in-line text editing. Any text you place in here will be lost. If you need to comment on your tab, please use the "Tab Notes" section located below.